  0
SECTION
  2
HEADER
  9
$ACADVER
  1
AC1032
  9
$ACADMAINTVER
 90
       55
  9
$DWGCODEPAGE
  3
ANSI_1252
  9
$TITLE
  1
Dotted Eyes template for OS MasterMap
  9
$SUBJECT
  1
Styles and blocks for Topography layer
  9
$AUTHOR
  1
Dotted Eyes
  9
$KEYWORDS
  1
AutopOSe, InterpOSe, SuperpOSe
  9
$COMMENTS
  1
Template contents © Dotted Eyes 2001-3. All rights reserved.
  9
$LASTSAVEDBY
  1
Staff
  9
$REQUIREDVERSIONS
160
                 0
  9
$INSBASE
 10
0.0
 20
0.0
 30
0.0
  9
$EXTMIN
 10
553899.8079446737
 20
238705.4061172115
 30
0.0
  9
$EXTMAX
 10
553930.6268117992
 20
238731.42
 30
0.0
  9
$LIMMIN
 10
429740.0
 20
100270.0
  9
$LIMMAX
 10
431220.0
 20
102260.0
  9
$ORTHOMODE
 70
     0
  9
$REGENMODE
 70
     1
  9
$FILLMODE
 70
     1
  9
$QTEXTMODE
 70
     0
  9
$MIRRTEXT
 70
     1
  9
$LTSCALE
 40
5.0
  9
$ATTMODE
 70
     1
  9
$TEXTSIZE
 40
0.2
  9
$TRACEWID
 40
0.05
  9
$TEXTSTYLE
  7
STANDARD
  9
$CLAYER
  8
0
  9
$CELTYPE
  6
CONTINUOUS
  9
$CECOLOR
 62
   256
  9
$CELTSCALE
 40
1.0
  9
$DISPSILH
 70
     0
  9
$DIMSCALE
 40
1.0
  9
$DIMASZ
 40
0.18
  9
$DIMEXO
 40
0.0625
  9
$DIMDLI
 40
0.38
  9
$DIMRND
 40
0.0
  9
$DIMDLE
 40
0.0
  9
$DIMEXE
 40
0.18
  9
$DIMTP
 40
0.0
  9
$DIMTM
 40
0.0
  9
$DIMTXT
 40
0.18
  9
$DIMCEN
 40
0.09
  9
$DIMTSZ
 40
0.0
  9
$DIMTOL
 70
     0
  9
$DIMLIM
 70
     0
  9
$DIMTIH
 70
     1
  9
$DIMTOH
 70
     1
  9
$DIMSE1
 70
     0
  9
$DIMSE2
 70
     0
  9
$DIMTAD
 70
     0
  9
$DIMZIN
 70
     0
  9
$DIMBLK
  1

  9
$DIMASO
 70
     1
  9
$DIMSHO
 70
     1
  9
$DIMPOST
  1

  9
$DIMAPOST
  1

  9
$DIMALT
 70
     0
  9
$DIMALTD
 70
     2
  9
$DIMALTF
 40
25.4
  9
$DIMLFAC
 40
1.0
  9
$DIMTOFL
 70
     0
  9
$DIMTVP
 40
0.0
  9
$DIMTIX
 70
     0
  9
$DIMSOXD
 70
     0
  9
$DIMSAH
 70
     0
  9
$DIMBLK1
  1

  9
$DIMBLK2
  1

  9
$DIMSTYLE
  2
Dotted_Eyes
  9
$DIMCLRD
 70
     0
  9
$DIMCLRE
 70
     0
  9
$DIMCLRT
 70
     0
  9
$DIMTFAC
 40
1.0
  9
$DIMGAP
 40
0.09
  9
$DIMJUST
 70
     0
  9
$DIMSD1
 70
     0
  9
$DIMSD2
 70
     0
  9
$DIMTOLJ
 70
     1
  9
$DIMTZIN
 70
     0
  9
$DIMALTZ
 70
     0
  9
$DIMALTTZ
 70
     0
  9
$DIMUPT
 70
     0
  9
$DIMDEC
 70
     4
  9
$DIMTDEC
 70
     4
  9
$DIMALTU
 70
     2
  9
$DIMALTTD
 70
     2
  9
$DIMTXSTY
  7
STANDARD
  9
$DIMAUNIT
 70
     0
  9
$DIMADEC
 70
     0
  9
$DIMALTRND
 40
0.0
  9
$DIMAZIN
 70
     0
  9
$DIMDSEP
 70
    46
  9
$DIMATFIT
 70
     3
  9
$DIMFRAC
 70
     0
  9
$DIMLDRBLK
  1

  9
$DIMLUNIT
 70
     2
  9
$DIMLWD
 70
    -2
  9
$DIMLWE
 70
    -2
  9
$DIMTMOVE
 70
     0
  9
$DIMFXL
 40
1.0
  9
$DIMFXLON
 70
     0
  9
$DIMJOGANG
 40
0.7853981633974483
  9
$DIMTFILL
 70
     0
  9
$DIMTFILLCLR
 70
     0
  9
$DIMARCSYM
 70
     0
  9
$DIMLTYPE
  6

  9
$DIMLTEX1
  6

  9
$DIMLTEX2
  6

  9
$DIMTXTDIRECTION
 70
     0
  9
$LUNITS
 70
     2
  9
$LUPREC
 70
     3
  9
$SKETCHINC
 40
0.05
  9
$FILLETRAD
 40
0.0
  9
$AUNITS
 70
     0
  9
$AUPREC
 70
     1
  9
$MENU
  1
.
  9
$ELEVATION
 40
0.0
  9
$PELEVATION
 40
0.0
  9
$THICKNESS
 40
0.0
  9
$LIMCHECK
 70
     0
  9
$CHAMFERA
 40
0.0
  9
$CHAMFERB
 40
0.0
  9
$CHAMFERC
 40
0.0
  9
$CHAMFERD
 40
0.0
  9
$SKPOLY
 70
     1
  9
$TDCREATE
 40
2453928.630684143
  9
$TDUCREATE
 40
2453928.630684143
  9
$TDUPDATE
 40
2459614.579167048
  9
$TDUUPDATE
 40
2459614.579167048
  9
$TDINDWG
 40
3.3937956481
  9
$TDUSRTIMER
 40
3.3937916088
  9
$USRTIMER
 70
     1
  9
$ANGBASE
 50
0.0
  9
$ANGDIR
 70
     0
  9
$PDMODE
 70
    34
  9
$PDSIZE
 40
0.0
  9
$PLINEWID
 40
0.0
  9
$SPLFRAME
 70
     0
  9
$SPLINETYPE
 70
     6
  9
$SPLINESEGS
 70
     8
  9
$HANDSEED
  5
8AAA4
  9
$SURFTAB1
 70
     6
  9
$SURFTAB2
 70
     6
  9
$SURFTYPE
 70
     6
  9
$SURFU
 70
     6
  9
$SURFV
 70
     6
  9
$UCSBASE
  2

  9
$UCSNAME
  2

  9
$UCSORG
 10
0.0
 20
0.0
 30
0.0
  9
$UCSXDIR
 10
1.0
 20
0.0
 30
0.0
  9
$UCSYDIR
 10
0.0
 20
1.0
 30
0.0
  9
$UCSORTHOREF
  2

  9
$UCSORTHOVIEW
 70
     0
  9
$UCSORGTOP
 10
0.0
 20
0.0
 30
0.0
  9
$UCSORGBOTTOM
 10
0.0
 20
0.0
 30
0.0
  9
$UCSORGLEFT
 10
0.0
 20
0.0
 30
0.0
  9
$UCSORGRIGHT
 10
0.0
 20
0.0
 30
0.0
  9
$UCSORGFRONT
 10
0.0
 20
0.0
 30
0.0
  9
$UCSORGBACK
 10
0.0
 20
0.0
 30
0.0
  9
$PUCSBASE
  2

  9
$PUCSNAME
  2

  9
$PUCSORG
 10
0.0
 20
0.0
 30
0.0
  9
$PUCSXDIR
 10
1.0
 20
0.0
 30
0.0
  9
$PUCSYDIR
 10
0.0
 20
1.0
 30
0.0
  9
$PUCSORTHOREF
  2

  9
$PUCSORTHOVIEW
 70
     0
  9
$PUCSORGTOP
 10
0.0
 20
0.0
 30
0.0
  9
$PUCSORGBOTTOM
 10
0.0
 20
0.0
 30
0.0
  9
$PUCSORGLEFT
 10
0.0
 20
0.0
 30
0.0
  9
$PUCSORGRIGHT
 10
0.0
 20
0.0
 30
0.0
  9
$PUCSORGFRONT
 10
0.0
 20
0.0
 30
0.0
  9
$PUCSORGBACK
 10
0.0
 20
0.0
 30
0.0
  9
$USERI1
 70
     0
  9
$USERI2
 70
     0
  9
$USERI3
 70
     0
  9
$USERI4
 70
     0
  9
$USERI5
 70
     0
  9
$USERR1
 40
0.0
  9
$USERR2
 40
0.0
  9
$USERR3
 40
0.0
  9
$USERR4
 40
0.0
  9
$USERR5
 40
0.0
  9
$WORLDVIEW
 70
     1
  9
$SHADEDGE
 70
     3
  9
$SHADEDIF
 70
    70
  9
$TILEMODE
 70
     1
  9
$MAXACTVP
 70
    48
  9
$PINSBASE
 10
0.0
 20
0.0
 30
0.0
  9
$PLIMCHECK
 70
     0
  9
$PEXTMIN
 10
1.000000000000000E+20
 20
1.000000000000000E+20
 30
1.000000000000000E+20
  9
$PEXTMAX
 10
-1.000000000000000E+20
 20
-1.000000000000000E+20
 30
-1.000000000000000E+20
  9
$PLIMMIN
 10
0.0
 20
0.0
  9
$PLIMMAX
 10
12.0
 20
9.0
  9
$UNITMODE
 70
     0
  9
$VISRETAIN
 70
     1
  9
$PLINEGEN
 70
     1
  9
$PSLTSCALE
 70
     1
  9
$TREEDEPTH
 70
  3020
  9
$CMLSTYLE
  2
STANDARD
  9
$CMLJUST
 70
     0
  9
$CMLSCALE
 40
1.0
  9
$PROXYGRAPHICS
 70
     1
  9
$MEASUREMENT
 70
     0
  9
$CELWEIGHT
370
    -1
  9
$ENDCAPS
280
     0
  9
$JOINSTYLE
280
     0
  9
$LWDISPLAY
290
     0
  9
$INSUNITS
 70
     6
  9
$HYPERLINKBASE
  1

  9
$STYLESHEET
  1

  9
$XEDIT
290
     1
  9
$CEPSNTYPE
380
     0
  9
$PSTYLEMODE
290
     1
  9
$FINGERPRINTGUID
  2
{0C18AB71-6218-4342-942D-330D588A5CF5}
  9
$VERSIONGUID
  2
{AE1DB424-59F0-E94C-816B-62953D3C8815}
  9
$EXTNAMES
290
     1
  9
$PSVPSCALE
 40
0.0
  9
$OLESTARTUP
290
     0
  9
$SORTENTS
280
   127
  9
$INDEXCTL
280
     0
  9
$HIDETEXT
280
     1
  9
$XCLIPFRAME
280
     0
  9
$HALOGAP
280
     0
  9
$OBSCOLOR
 70
   257
  9
$OBSLTYPE
280
     0
  9
$INTERSECTIONDISPLAY
280
     0
  9
$INTERSECTIONCOLOR
 70
   257
  9
$DIMASSOC
280
     1
  9
$PROJECTNAME
  1

  9
$CAMERADISPLAY
290
     0
  9
$LENSLENGTH
 40
50.0
  9
$CAMERAHEIGHT
 40
0.0
  9
$STEPSPERSEC
 40
2.0
  9
$STEPSIZE
 40
6.0
  9
$3DDWFPREC
 40
2.0
  9
$PSOLWIDTH
 40
0.25
  9
$PSOLHEIGHT
 40
4.0
  9
$LOFTANG1
 40
1.570796326794896
  9
$LOFTANG2
 40
1.570796326794896
  9
$LOFTMAG1
 40
0.0
  9
$LOFTMAG2
 40
0.0
  9
$LOFTPARAM
 70
     7
  9
$LOFTNORMALS
280
     1
  9
$LATITUDE
 40
37.795
  9
$LONGITUDE
 40
-122.394
  9
$NORTHDIRECTION
 40
0.0
  9
$TIMEZONE
 70
 -8000
  9
$LIGHTGLYPHDISPLAY
280
     1
  9
$TILEMODELIGHTSYNCH
280
     1
  9
$CMATERIAL
347
7A103
  9
$SOLIDHIST
280
     1
  9
$SHOWHIST
280
     1
  9
$DWFFRAME
280
     2
  9
$DGNFRAME
280
     0
  9
$REALWORLDSCALE
290
     1
  9
$INTERFERECOLOR
 62
     1
  9
$CSHADOW
280
     0
  9
$SHADOWPLANELOCATION
 40
0.0
  0
ENDSEC
  0
SECTION
  2
CLASSES
  0
CLASS
  1
IMAGE
  2
AcDbRasterImage
  3
ISM
 90
      127
 91
        4
280
     0
281
     1
  0
CLASS
  1
DICTIONARYVAR
  2
AcDbDictionaryVar
  3
ObjectDBX Classes
 90
        0
 91
        3
280
     0
281
     0
  0
CLASS
  1
RASTERVARIABLES
  2
AcDbRasterVariables
  3
ISM
 90
        0
 91
        3
280
     0
281
     0
  0
CLASS
  1
IMAGEDEF
  2
AcDbRasterImageDef
  3
ISM
 90
        0
 91
        3
280
     0
281
     0
  0
CLASS
  1
IMAGEDEF_REACTOR
  2
AcDbRasterImageDefReactor
  3
ISM
 90
        1
 91
        3
280
     0
281
     0
  0
CLASS
  1
IDBUFFER
  2
AcDbIdBuffer
  3
ObjectDBX Classes
 90
        0
 91
        3
280
     0
281
     0
  0
CLASS
  1
SPATIAL_FILTER
  2
AcDbSpatialFilter
  3
ObjectDBX Classes
 90
        0
 91
        3
280
     0
281
     0
  0
CLASS
  1
SORTENTSTABLE
  2
AcDbSortentsTable
  3
ObjectDBX Classes
 90
        0
 91
        3
280
     0
281
     0
  0
CLASS
  1
LAYER_INDEX
  2
AcDbLayerIndex
  3
ObjectDBX Classes
 90
        0
 91
        3
280
     0
281
     0
  0
CLASS
  1
SPATIAL_INDEX
  2
AcDbSpatialIndex
  3
AutoCAD 2000
 90
        0
 91
        3
280
     0
281
     0
  0
CLASS
  1
OBJECT_PTR
  2
CAseDLPNTableRecord
  3
ASE-LPNTableRecord
 90
        1
 91
        3
280
     0
281
     0
  0
CLASS
  1
PLOTSETTINGS
  2
AcDbPlotSettings
  3
ObjectDBX Classes
 90
        0
 91
        3
280
     0
281
     0
  0
CLASS
  1
ACDBDICTIONARYWDFLT
  2
AcDbDictionaryWithDefault
  3
ObjectDBX Classes
 90
        0
 91
        3
280
     0
281
     0
  0
CLASS
  1
WIPEOUT
  2
AcDbWipeout
  3
WipeOut|AutoCAD Express Tool|expresstools@autodesk.com
 90
      127
 91
        3
280
     0
281
     1
  0
CLASS
  1
WIPEOUTVARIABLES
  2
AcDbWipeoutVariables
  3
WipeOut|AutoCAD Express Tool|expresstools@autodesk.com
 90
        0
 91
        3
280
     0
281
     0
  0
CLASS
  1
RTEXT
  2
RText
  3
RText|AutoCAD Express Tool|expresstools@autodesk.com
 90
        0
 91
        3
280
     0
281
     1
  0
CLASS
  1
ARCALIGNEDTEXT
  2
AcDbArcAlignedText
  3
ATEXT|AutoCAD Express Tool|expresstools@autodesk.com
 90
        0
 91
        3
280
     0
281
     1
  0
CLASS
  1
ACAD_PROXY_OBJECT_WRAPPER
  2
AcDbProxyObjectWrapper
  3
AutoCAD 2000
 90
        0
 91
        3
280
     0
281
     0
  0
CLASS
  1
MATERIAL
  2
AcDbMaterial
  3
ObjectDBX Classes
 90
     1153
 91
        3
280
     0
281
     0
  0
CLASS
  1
VISUALSTYLE
  2
AcDbVisualStyle
  3
ObjectDBX Classes
 90
     4095
 91
        3
280
     0
281
     0
  0
CLASS
  1
TABLESTYLE
  2
AcDbTableStyle
  3
ObjectDBX Classes
 90
     4095
 91
        3
280
     0
281
     0
  0
CLASS
  1
DMMAPMANAGER
  2
AcMapDMMapManager
  3
AcMapDisplayManagement
 90
     1024
 91
        2
280
     1
281
     0
  0
CLASS
  1
DMSTYLELIBRARY
  2
AcMapDMStyleLibrary
  3
AcMapDisplayManagement
 90
     1024
 91
        2
280
     1
281
     0
  0
CLASS
  1
DMSTYLECATEGORY
  2
AcMapDMStyleCategory
  3
AcMapDisplayManagement
 90
     1024
 91
        2
280
     1
281
     0
  0
CLASS
  1
DATATABLE
  2
AcDbDataTable
  3
ObjectDBX Classes
 90
        0
 91
        3
280
     0
281
     0
  0
CLASS
  1
EXACXREFPANELOBJECT
  2
ExAcXREFPanelObject
  3
EXAC_ESW
 90
     1025
 91
        1
280
     1
281
     0
  0
CLASS
  1
NPOCOLLECTION
  2
AcDbImpNonPersistentObjectsCollection
  3
ObjectDBX Classes
 90
     1153
 91
        1
280
     1
281
     0
  0
CLASS
  1
DMMAP
  2
AcMapDMMap
  3
AcMapDisplayManagement
 90
     1024
 91
        2
280
     1
281
     0
  0
CLASS
  1
DMBASEELEMENT
  2
AcMapDMBaseElement
  3
AcMapDisplayManagement
 90
     1024
 91
        2
280
     1
281
     0
  0
CLASS
  1
DMDEFAULTSTYLE
  2
AcMapDMDefaultStyle
  3
AcMapDisplayManagement
 90
     1024
 91
        2
280
     1
281
     0
  0
CLASS
  1
DMSTYLEREFERENCE
  2
AcMapDMStyleReference
  3
AcMapDisplayManagement
 90
     1024
 91
        2
280
     1
281
     0
  0
CLASS
  1
DMSURROGATESTYLESETS
  2
AcMapDMSurrogateStyleSets
  3
AcMapDisplayManagement
 90
     1153
 91
        2
280
     1
281
     0
  0
CLASS
  1
DMSTYLIZEDENTITIESTABLE
  2
AcMapDMStylizedEntitiesTable
  3
AcMapDisplayManagement
 90
     1024
 91
        2
280
     1
281
     0
  0
CLASS
  1
MAPGWSUNDOOBJECT
  2
AcMapGWSUndoRecorder
  3
AcMapFeatureSourceManager
 90
     1025
 91
        1
280
     1
281
     0
  0
CLASS
  1
SCALE
  2
AcDbScale
  3
ObjectDBX Classes
 90
     1153
 91
        3
280
     0
281
     0
  0
CLASS
  1
MLEADERSTYLE
  2
AcDbMLeaderStyle
  3
ACDB_MLEADERSTYLE_CLASS
 90
     4095
 91
        3
280
     0
281
     0
  0
CLASS
  1
ACDBSECTIONVIEWSTYLE
  2
AcDbSectionViewStyle
  3
ObjectDBX Classes
 90
     1025
 91
        3
280
     0
281
     0
  0
CLASS
  1
ACDBDETAILVIEWSTYLE
  2
AcDbDetailViewStyle
  3
ObjectDBX Classes
 90
     1025
 91
        3
280
     0
281
     0
  0
CLASS
  1
MAPRESOURCEMANAGEROBJECT
  2
AcMapResourceManager
  3
AcMapSharedComponents
 90
     1024
 91
        1
280
     1
281
     0
  0
CLASS
  1
CELLSTYLEMAP
  2
AcDbCellStyleMap
  3
ObjectDBX Classes
 90
     1152
 91
        3
280
     0
281
     0
  0
ENDSEC
  0
SECTION
  2
TABLES
  0
TABLE
  2
VPORT
  5
7
330
0
100
AcDbSymbolTable
 70
     1
  0
VPORT
  5
76CAC
330
7
100
AcDbSymbolTableRecord
100
AcDbViewportTableRecord
  2
*Active
 70
     0
 10
0.0
 20
0.0
 11
1.0
 21
1.0
 12
415.2173782364697
 22
218.4130586057436
 13
0.0
 23
0.0
 14
1.0
 24
1.0
 15
0.0
 25
0.0
 16
0.0
 26
0.0
 36
1.0
 17
553500.0
 27
238500.0
 37
0.0
 40
26.15500692663181
 41
2.242533936651583
 42
50.0
 43
0.0
 44
0.0
 50
0.0
 51
0.0
 71
     0
 72
  1000
 73
     1
 74
     0
 75
     0
 76
     0
 77
     0
 78
     0
281
     0
 65
     1
110
0.0
120
0.0
130
0.0
111
1.0
121
0.0
131
0.0
112
0.0
122
1.0
132
0.0
 79
     0
146
0.0
348
7A10C
 60
     3
 61
     5
292
     1
282
     1
141
0.0
142
0.0
 63
   250
421
  3355443
1001
ACAD_NAV_VCDISPLAY
1070
     3
  0
ENDTAB
  0
TABLE
  2
LTYPE
  5
4
330
0
100
AcDbSymbolTable
 70
     2
  0
LTYPE
  5
11
330
4
100
AcDbSymbolTableRecord
100
AcDbLinetypeTableRecord
  2
BYBLOCK
 70
     0
  3

 72
    65
 73
     0
 40
0.0
  0
LTYPE
  5
12
330
4
100
AcDbSymbolTableRecord
100
AcDbLinetypeTableRecord
  2
BYLAYER
 70
     0
  3

 72
    65
 73
     0
 40
0.0
  0
LTYPE
  5
13
330
4
100
AcDbSymbolTableRecord
100
AcDbLinetypeTableRecord
  2
CONTINUOUS
 70
     0
  3
Solid line
 72
    65
 73
     0
 40
0.0
  0
LTYPE
  5
74CD4
330
4
100
AcDbSymbolTableRecord
100
AcDbLinetypeTableRecord
  2
DASHEDLINE
 70
     0
  3
Default Dashed Line
 72
    65
 73
     2
 40
1.0
 49
0.5
 74
     0
 49
-0.5
 74
     0
  0
ENDTAB
  0
TABLE
  2
LAYER
  5
2
102
{ACAD_XDICTIONARY
360
7A13B
102
}
330
0
100
AcDbSymbolTable
 70
    11
  0
LAYER
  5
14
102
{ACAD_XDICTIONARY
360
8A0BC
102
}
330
2
100
AcDbSymbolTableRecord
100
AcDbLayerTableRecord
  2
0
 70
     0
 62
     7
  6
CONTINUOUS
370
    -3
390
74CC8
347
7A105
348
0
  0
LAYER
  5
4BD1
102
{ACAD_XDICTIONARY
360
8A0DA
102
}
330
2
100
AcDbSymbolTableRecord
100
AcDbLayerTableRecord
  2
LINE_0030_OBSTRUCTING_FEAT
 70
     0
 62
    53
  6
CONTINUOUS
370
    -3
390
74CC8
347
7A105
348
0
  0
LAYER
  5
7A217
102
{ACAD_XDICTIONARY
360
8A0FE
102
}
330
2
100
AcDbSymbolTableRecord
100
AcDbLayerTableRecord
  2
trench
 70
     0
 62
     5
  6
CONTINUOUS
370
    -3
390
74CC8
347
7A105
348
0
1001
AcAecLayerStandard
1000

1000

  0
LAYER
  5
7A220
102
{ACAD_XDICTIONARY
360
8A100
102
}
330
2
100
AcDbSymbolTableRecord
100
AcDbLayerTableRecord
  2
brkslp
 70
     0
 62
    51
  6
CONTINUOUS
370
    -3
390
74CC8
347
7A105
348
0
1001
AcAecLayerStandard
1000

1000

  0
LAYER
  5
7A2DD
102
{ACAD_XDICTIONARY
360
8A108
102
}
330
2
100
AcDbSymbolTableRecord
100
AcDbLayerTableRecord
  2
section
 70
     0
 62
    72
  6
CONTINUOUS
370
    -3
390
74CC8
347
7A105
348
0
1001
AcAecLayerStandard
1000

1000

  0
LAYER
  5
7A353
102
{ACAD_XDICTIONARY
360
8A110
102
}
330
2
100
AcDbSymbolTableRecord
100
AcDbLayerTableRecord
  2
sectionmarker
 70
     0
 62
   103
  6
CONTINUOUS
370
    -3
390
74CC8
347
7A105
348
0
1001
AcAecLayerStandard
1000

1000

  0
LAYER
  5
7A38B
102
{ACAD_XDICTIONARY
360
8A112
102
}
330
2
100
AcDbSymbolTableRecord
100
AcDbLayerTableRecord
  2
feature
 70
     0
 62
     7
  6
CONTINUOUS
370
    -3
390
74CC8
347
7A105
348
0
1001
AcAecLayerStandard
1000

1000

  0
LAYER
  5
89F00
102
{ACAD_XDICTIONARY
360
8A14C
102
}
330
2
100
AcDbSymbolTableRecord
100
AcDbLayerTableRecord
  2
castleblock
 70
     0
 62
    20
  6
CONTINUOUS
370
    30
390
74CC8
347
7A105
348
0
1001
AcAecLayerStandard
1000

1000

  0
LAYER
  5
8A33F
330
2
100
AcDbSymbolTableRecord
100
AcDbLayerTableRecord
  2
_off
 70
     0
 62
     2
  6
CONTINUOUS
370
    -3
390
74CC8
347
7A105
348
0
1001
AcAecLayerStandard
1000

1000

1001
AcCmTransparency
1071
        0
  0
LAYER
  5
8A3E5
330
2
100
AcDbSymbolTableRecord
100
AcDbLayerTableRecord
  2
overhang
 70
     0
 62
   253
  6
DASHEDLINE
370
    30
390
74CC8
347
7A105
348
0
1001
AcAecLayerStandard
1000

1000

1001
AcCmTransparency
1071
        0
  0
LAYER
  5
8A8B6
330
2
100
AcDbSymbolTableRecord
100
AcDbLayerTableRecord
  2
basement projected
 70
     0
 62
    40
  6
CONTINUOUS
370
    -3
390
74CC8
347
7A105
348
0
1001
AcAecLayerStandard
1000

1000

1001
AcCmTransparency
1071
        0
  0
ENDTAB
  0
TABLE
  2
STYLE
  5
3
330
0
100
AcDbSymbolTable
 70
     1
  0
STYLE
  5
17
330
3
100
AcDbSymbolTableRecord
100
AcDbTextStyleTableRecord
  2
STANDARD
 70
     0
 40
0.0
 41
1.0
 50
0.0
 71
     0
 42
0.2
  3
txt
  4

  0
ENDTAB
  0
TABLE
  2
VIEW
  5
5
330
0
100
AcDbSymbolTable
 70
     0
  0
ENDTAB
  0
TABLE
  2
UCS
  5
6
330
0
100
AcDbSymbolTable
 70
     0
  0
ENDTAB
  0
TABLE
  2
APPID
  5
8
330
0
100
AcDbSymbolTable
 70
    15
  0
APPID
  5
16
330
8
100
AcDbSymbolTableRecord
100
AcDbRegAppTableRecord
  2
ACAD
 70
     0
  0
APPID
  5
755D7
330
8
100
AcDbSymbolTableRecord
100
AcDbRegAppTableRecord
  2
DCO15
 70
     0
  0
APPID
  5
755D8
330
8
100
AcDbSymbolTableRecord
100
AcDbRegAppTableRecord
  2
ADE
 70
     0
  0
APPID
  5
75D79
330
8
100
AcDbSymbolTableRecord
100
AcDbRegAppTableRecord
  2
CONTENTBLOCKICON
 70
     0
  0
APPID
  5
7A12A
330
8
100
AcDbSymbolTableRecord
100
AcDbRegAppTableRecord
  2
AcMapDMDisplayStyleRegapp
 70
     0
  0
APPID
  5
7A139
330
8
100
AcDbSymbolTableRecord
100
AcDbRegAppTableRecord
  2
AcAecLayerStandard
 70
     0
  0
APPID
  5
7A146
330
8
100
AcDbSymbolTableRecord
100
AcDbRegAppTableRecord
  2
ACAD_EXEMPT_FROM_CAD_STANDARDS
 70
     0
  0
APPID
  5
7A14E
330
8
100
AcDbSymbolTableRecord
100
AcDbRegAppTableRecord
  2
MapGWS
 70
     0
  0
APPID
  5
7A30E
330
8
100
AcDbSymbolTableRecord
100
AcDbRegAppTableRecord
  2
ACAD_PSEXT
 70
     0
  0
APPID
  5
8A0B8
330
8
100
AcDbSymbolTableRecord
100
AcDbRegAppTableRecord
  2
ACAD_NAV_VCDISPLAY
 70
     0
  0
APPID
  5
8A0BA
330
8
100
AcDbSymbolTableRecord
100
AcDbRegAppTableRecord
  2
ADE_PROJECTION
 70
     0
  0
APPID
  5
8A290
330
8
100
AcDbSymbolTableRecord
100
AcDbRegAppTableRecord
  2
AcCmTransparency
 70
     0
  0
APPID
  5
8A31A
330
8
100
AcDbSymbolTableRecord
100
AcDbRegAppTableRecord
  2
MapManagementAppName
 70
     0
  0
APPID
  5
8A5B6
330
8
100
AcDbSymbolTableRecord
100
AcDbRegAppTableRecord
  2
ACAD_SKPOLY
 70
     0
1001
ACAD_SKPOLY
1070
     1
  0
APPID
  5
8A9C3
330
8
100
AcDbSymbolTableRecord
100
AcDbRegAppTableRecord
  2
AcLayerTools
 70
     0
  0
ENDTAB
  0
TABLE
  2
DIMSTYLE
  5
9
330
0
100
AcDbSymbolTable
 70
     2
100
AcDbDimStyleTable
  0
DIMSTYLE
105
18
330
9
100
AcDbSymbolTableRecord
100
AcDbDimStyleTableRecord
  2
Dotted_Eyes
 70
     0
178
     0
289
     0
340
17
  0
DIMSTYLE
105
755D6
330
9
100
AcDbSymbolTableRecord
100
AcDbDimStyleTableRecord
  2
STANDARD
 70
     0
178
     0
271
     3
272
     3
274
     0
279
     2
340
17
  0
ENDTAB
  0
TABLE
  2
BLOCK_RECORD
  5
1
330
0
100
AcDbSymbolTable
 70
     0
  0
BLOCK_RECORD
  5
A
102
{ACAD_XDICTIONARY
360
7A142
102
}
330
1
100
AcDbSymbolTableRecord
100
AcDbBlockTableRecord
  2
*MODEL_SPACE
340
74CCB
 70
     0
280
     1
281
     0
  0
BLOCK_RECORD
  5
B
330
1
100
AcDbSymbolTableRecord
100
AcDbBlockTableRecord
  2
*PAPER_SPACE
340
74CCC
 70
     0
280
     1
281
     0
  0
ENDTAB
  0
ENDSEC
  0
SECTION
  2
BLOCKS
  0
BLOCK
  5
D
330
A
100
AcDbEntity
  8
0
100
AcDbBlockBegin
  2
*MODEL_SPACE
 70
     0
 10
0.0
 20
0.0
 30
0.0
  3
*MODEL_SPACE
  1

  0
ENDBLK
  5
E
330
A
100
AcDbEntity
  8
0
100
AcDbBlockEnd
  0
BLOCK
  5
F
330
B
100
AcDbEntity
 67
     1
  8
0
100
AcDbBlockBegin
  2
*PAPER_SPACE
 70
     0
 10
0.0
 20
0.0
 30
0.0
  3
*PAPER_SPACE
  1

  0
ENDBLK
  5
10
330
B
100
AcDbEntity
 67
     1
  8
0
100
AcDbBlockEnd
  0
ENDSEC
  0
SECTION
  2
ENTITIES
  0
LWPOLYLINE
  5
780A0
330
A
100
AcDbEntity
  8
_off
100
AcDbPolyline
 90
       11
 70
     0
 43
0.0
 10
553929.74
 20
238714.33
 10
553928.14
 20
238718.93
 10
553929.0400000002
 20
238719.53
 10
553928.2400000001
 20
238721.93
 10
553927.44
 20
238721.63
 10
553925.84
 20
238726.83
 10
553927.24
 20
238728.23
 10
553927.3399999999
 20
238728.43
 10
553927.3399999999
 20
238728.63
 10
553927.44
 20
238728.83
 10
553927.44
 20
238729.53
1001
ACAD
1000
ChangeDate{1}=20011213
1000
QUERY_TIME=09:34:08
1000
LA_CH_REAS=Position
1000
ACC_OF_POS=2.5m
1000
QUERY_DATE=20061009
1000
CHUNK_NAME=27826-TL5038-5c152
1000
FEATCOL_ID=GDS-1516050
1000
LEGEND=0001 Building outline
1000
CHUNK_ORIG=TL5038
1000
Q_CH_SINCE=
1000
FEAT_CODE=10019
1000
MAKE=Manmade
1000
PROC_TIME=16:00:01
1000
VERSION=1
1000
DESC_TERM=Outline
1000
PHYS_PRES=Obstructing
1000
RULE=5002
1000
DESC_GROUP=Building
1000
ChangeReason{0}=New
1000
NONBOUND=false
1000
BROKEN=false
1000
ChangeDate{0}=19910927
1000
THEME=Buildings; Land
1000
ChangeReason{1}=Position
1000
TOID=1000002081979423
1000
PROC_DATE=20070430
1000
PHYS_LEVEL=50
1000
VER_DATE=20030211
1000
FID=osgb1000002081979423
1000
LA_CH_DATE=20011213
  0
LWPOLYLINE
  5
78A63
330
A
100
AcDbEntity
  8
LINE_0030_OBSTRUCTING_FEAT
100
AcDbPolyline
 90
        3
 70
     0
 43
0.0
 10
553928.71
 20
238731.42
 10
553929.02
 20
238729.8900000001
 10
553927.44
 20
238729.53
1001
ACAD
1000
ChangeDate{1}=20011213
1000
QUERY_TIME=09:34:08
1000
LA_CH_REAS=Position
1000
ACC_OF_POS=2.5m
1000
QUERY_DATE=20061009
1000
CHUNK_NAME=27826-TL5038-5c152
1000
FEATCOL_ID=GDS-1516050
1000
LEGEND=0030 Obstructing feature
1000
CHUNK_ORIG=TL5038
1000
Q_CH_SINCE=
1000
FEAT_CODE=10046
1000
MAKE=
1000
PROC_TIME=16:00:01
1000
VERSION=2
1000
DESC_TERM=
1000
PHYS_PRES=Obstructing
1000
RULE=5004
1000
DESC_GROUP=General Feature
1000
ChangeReason{0}=New
1000
NONBOUND=false
1000
BROKEN=false
1000
ChangeDate{0}=19910927
1000
THEME=Land
1000
ChangeReason{1}=Position
1000
TOID=1000002081611310
1000
PROC_DATE=20070430
1000
PHYS_LEVEL=50
1000
VER_DATE=20030211
1000
FID=osgb1000002081611310
1000
LA_CH_DATE=20011213
  0
LWPOLYLINE
  5
78A64
330
A
100
AcDbEntity
  8
_off
100
AcDbPolyline
 90
       13
 70
     0
 43
0.0
 10
553927.44
 20
238729.53
 10
553927.3399999999
 20
238729.63
 10
553927.3399999999
 20
238729.83
 10
553927.14
 20
238730.23
 10
553927.0400000002
 20
238730.33
 10
553926.94
 20
238730.53
 10
553926.7399999999
 20
238730.63
 10
553926.64
 20
238730.73
 10
553926.44
 20
238730.83
 10
553926.34
 20
238730.93
 10
553926.14
 20
238731.03
 10
553925.1400000001
 20
238731.03
 10
553913.34
 20
238726.93
1001
ACAD
1000
ChangeDate{1}=20011213
1000
QUERY_TIME=09:34:08
1000
LA_CH_REAS=Position
1000
ACC_OF_POS=2.5m
1000
QUERY_DATE=20061009
1000
CHUNK_NAME=27826-TL5038-5c152
1000
FEATCOL_ID=GDS-1516050
1000
LEGEND=0001 Building outline
1000
CHUNK_ORIG=TL5038
1000
Q_CH_SINCE=
1000
FEAT_CODE=10019
1000
MAKE=Manmade
1000
PROC_TIME=16:00:01
1000
VERSION=2
1000
DESC_TERM=Outline
1000
PHYS_PRES=Obstructing
1000
RULE=5002
1000
DESC_GROUP=Building
1000
ChangeReason{0}=New
1000
NONBOUND=false
1000
BROKEN=false
1000
ChangeDate{0}=19910927
1000
THEME=Buildings; Land
1000
ChangeReason{1}=Position
1000
TOID=1000002081611309
1000
PROC_DATE=20070430
1000
PHYS_LEVEL=50
1000
VER_DATE=20030211
1000
FID=osgb1000002081611309
1000
LA_CH_DATE=20011213
  0
LINE
  5
78A65
330
A
100
AcDbEntity
  8
_off
100
AcDbLine
 10
553913.34
 20
238726.93
 30
0.0
 11
553914.24
 21
238723.93
 31
0.0
1001
ACAD
1000
ChangeDate{1}=20011213
1000
QUERY_TIME=09:34:08
1000
LA_CH_REAS=Position
1000
ACC_OF_POS=2.5m
1000
QUERY_DATE=20061009
1000
CHUNK_NAME=27826-TL5038-5c152
1000
FEATCOL_ID=GDS-1516050
1000
LEGEND=0001 Building outline
1000
CHUNK_ORIG=TL5038
1000
Q_CH_SINCE=
1000
FEAT_CODE=10019
1000
MAKE=Manmade
1000
PROC_TIME=16:00:01
1000
VERSION=2
1000
DESC_TERM=Outline
1000
PHYS_PRES=Obstructing
1000
RULE=5002
1000
DESC_GROUP=Building
1000
ChangeReason{0}=New
1000
NONBOUND=false
1000
BROKEN=false
1000
ChangeDate{0}=19910927
1000
THEME=Buildings; Land
1000
ChangeReason{1}=Position
1000
TOID=1000002081611308
1000
PROC_DATE=20070430
1000
PHYS_LEVEL=50
1000
VER_DATE=20030211
1000
FID=osgb1000002081611308
1000
LA_CH_DATE=20011213
  0
LWPOLYLINE
  5
78A66
330
A
100
AcDbEntity
  8
_off
100
AcDbPolyline
 90
        9
 70
     0
 43
0.0
 10
553914.24
 20
238723.93
 10
553922.0400000002
 20
238725.53
 10
553925.94
 20
238716.53
 10
553926.14
 20
238716.23
 10
553926.44
 20
238715.93
 10
553926.7399999999
 20
238715.73
 10
553926.94
 20
238715.43
 10
553927.5400000002
 20
238715.03
 10
553929.74
 20
238714.33
1001
ACAD
1000
ChangeDate{1}=20011213
1000
QUERY_TIME=09:34:08
1000
LA_CH_REAS=Position
1000
ACC_OF_POS=2.5m
1000
QUERY_DATE=20061009
1000
CHUNK_NAME=27826-TL5038-5c152
1000
FEATCOL_ID=GDS-1516050
1000
LEGEND=0001 Building outline
1000
CHUNK_ORIG=TL5038
1000
Q_CH_SINCE=
1000
FEAT_CODE=10019
1000
MAKE=Manmade
1000
PROC_TIME=16:00:01
1000
VERSION=2
1000
DESC_TERM=Outline
1000
PHYS_PRES=Obstructing
1000
RULE=5002
1000
DESC_GROUP=Building
1000
ChangeReason{0}=New
1000
NONBOUND=false
1000
BROKEN=false
1000
ChangeDate{0}=19910927
1000
THEME=Buildings; Land
1000
ChangeReason{1}=Position
1000
TOID=1000002081611307
1000
PROC_DATE=20070430
1000
PHYS_LEVEL=50
1000
VER_DATE=20030211
1000
FID=osgb1000002081611307
1000
LA_CH_DATE=20011213
  0
LWPOLYLINE
  5
78A67
330
A
100
AcDbEntity
  8
_off
100
AcDbPolyline
 90
        7
 70
     0
 43
0.0
 10
553911.74
 20
238723.43
 10
553910.24
 20
238722.83
 10
553914.74
 20
238710.13
 10
553924.34
 20
238713.53
 10
553924.8399999999
 20
238712.03
 10
553926.94
 20
238712.73
 10
553927.5400000002
 20
238710.93
1001
ACAD
1000
ChangeDate{1}=20011213
1000
QUERY_TIME=09:34:08
1000
LA_CH_REAS=Position
1000
ACC_OF_POS=2.5m
1000
QUERY_DATE=20061009
1000
CHUNK_NAME=27826-TL5038-5c152
1000
FEATCOL_ID=GDS-1516050
1000
LEGEND=0001 Building outline
1000
CHUNK_ORIG=TL5038
1000
Q_CH_SINCE=
1000
FEAT_CODE=10019
1000
MAKE=Manmade
1000
PROC_TIME=16:00:01
1000
VERSION=2
1000
DESC_TERM=Outline
1000
PHYS_PRES=Obstructing
1000
RULE=5002
1000
DESC_GROUP=Building
1000
ChangeReason{0}=New
1000
NONBOUND=false
1000
BROKEN=false
1000
ChangeDate{0}=19910927
1000
THEME=Buildings; Land
1000
ChangeReason{1}=Position
1000
TOID=1000002081611306
1000
PROC_DATE=20070430
1000
PHYS_LEVEL=50
1000
VER_DATE=20030211
1000
FID=osgb1000002081611306
1000
LA_CH_DATE=20011213
  0
LINE
  5
78A68
330
A
100
AcDbEntity
  8
_off
100
AcDbLine
 10
553910.74
 20
238726.33
 30
0.0
 11
553911.74
 21
238723.43
 31
0.0
1001
ACAD
1000
ChangeDate{1}=20011213
1000
QUERY_TIME=09:34:08
1000
LA_CH_REAS=Position
1000
ACC_OF_POS=2.5m
1000
QUERY_DATE=20061009
1000
CHUNK_NAME=27826-TL5038-5c152
1000
FEATCOL_ID=GDS-1516050
1000
LEGEND=0001 Building outline
1000
CHUNK_ORIG=TL5038
1000
Q_CH_SINCE=
1000
FEAT_CODE=10019
1000
MAKE=Manmade
1000
PROC_TIME=16:00:01
1000
VERSION=2
1000
DESC_TERM=Outline
1000
PHYS_PRES=Obstructing
1000
RULE=5002
1000
DESC_GROUP=Building
1000
ChangeReason{0}=New
1000
NONBOUND=false
1000
BROKEN=false
1000
ChangeDate{0}=19910927
1000
THEME=Buildings; Land
1000
ChangeReason{1}=Position
1000
TOID=1000002081611305
1000
PROC_DATE=20070430
1000
PHYS_LEVEL=50
1000
VER_DATE=20030211
1000
FID=osgb1000002081611305
1000
LA_CH_DATE=20011213
  0
LWPOLYLINE
  5
78A6B
330
A
100
AcDbEntity
  8
_off
100
AcDbPolyline
 90
       18
 70
     0
 43
0.0
 10
553927.5400000002
 20
238710.93
 10
553912.84
 20
238705.83
 10
553910.0400000002
 20
238713.83
 10
553908.24
 20
238713.13
 10
553907.84
 20
238714.33
 10
553909.34
 20
238714.83
 10
553908.3399999999
 20
238717.63
 10
553905.34
 20
238716.63
 10
553905.5400000002
 20
238715.73
 10
553904.1400000004
 20
238715.23
 10
553903.94
 20
238716.03
 10
553902.94
 20
238715.73
 10
553902.34
 20
238717.53
 10
553907.34
 20
238719.33
 10
553906.24
 20
238722.63
 10
553900.84
 20
238720.73
 10
553900.14
 20
238722.63
 10
553910.74
 20
238726.33
1001
ACAD
1000
ChangeDate{1}=20011213
1000
QUERY_TIME=09:34:08
1000
LA_CH_REAS=Position
1000
ACC_OF_POS=2.5m
1000
QUERY_DATE=20061009
1000
CHUNK_NAME=27826-TL5038-5c152
1000
FEATCOL_ID=GDS-1516050
1000
LEGEND=0001 Building outline
1000
CHUNK_ORIG=TL5038
1000
Q_CH_SINCE=
1000
FEAT_CODE=10019
1000
MAKE=Manmade
1000
PROC_TIME=16:00:01
1000
VERSION=2
1000
DESC_TERM=Outline
1000
PHYS_PRES=Obstructing
1000
RULE=5002
1000
DESC_GROUP=Building
1000
ChangeReason{0}=New
1000
NONBOUND=false
1000
BROKEN=false
1000
ChangeDate{0}=19910927
1000
THEME=Buildings; Land
1000
ChangeReason{1}=Position
1000
TOID=1000002081611301
1000
PROC_DATE=20070430
1000
PHYS_LEVEL=50
1000
VER_DATE=20030211
1000
FID=osgb1000002081611301
1000
LA_CH_DATE=20011213
  0
LINE
  5
798F1
330
A
100
AcDbEntity
  8
_off
100
AcDbLine
 10
553913.34
 20
238726.93
 30
0.0
 11
553910.74
 21
238726.33
 31
0.0
1001
ACAD
1000
ChangeDate{1}=20011205
1000
QUERY_TIME=09:34:08
1000
LA_CH_REAS=Position
1000
ACC_OF_POS=2.5m
1000
QUERY_DATE=20061009
1000
CHUNK_NAME=27826-TL5038-5c152
1000
FEATCOL_ID=GDS-1516050
1000
LEGEND=0030 Obstructing feature
1000
CHUNK_ORIG=TL5038
1000
Q_CH_SINCE=
1000
FEAT_CODE=10046
1000
MAKE=
1000
PROC_TIME=16:00:01
1000
VERSION=2
1000
DESC_TERM=
1000
PHYS_PRES=Obstructing
1000
RULE=5004
1000
DESC_GROUP=General Feature
1000
ChangeReason{0}=New
1000
NONBOUND=false
1000
BROKEN=false
1000
ChangeDate{0}=19910927
1000
THEME=Land
1000
ChangeReason{1}=Position
1000
TOID=1000002081607077
1000
PROC_DATE=20070430
1000
PHYS_LEVEL=50
1000
VER_DATE=20030211
1000
FID=osgb1000002081607077
1000
LA_CH_DATE=20011205
  0
LINE
  5
798F2
330
A
100
AcDbEntity
  8
_off
100
AcDbLine
 10
553911.74
 20
238723.43
 30
0.0
 11
553914.24
 21
238723.93
 31
0.0
1001
ACAD
1000
ChangeDate{1}=20011205
1000
QUERY_TIME=09:34:08
1000
LA_CH_REAS=Position
1000
ACC_OF_POS=2.5m
1000
QUERY_DATE=20061009
1000
CHUNK_NAME=27826-TL5038-5c152
1000
FEATCOL_ID=GDS-1516050
1000
LEGEND=0030 Obstructing feature
1000
CHUNK_ORIG=TL5038
1000
Q_CH_SINCE=
1000
FEAT_CODE=10046
1000
MAKE=
1000
PROC_TIME=16:00:01
1000
VERSION=2
1000
DESC_TERM=
1000
PHYS_PRES=Obstructing
1000
RULE=5004
1000
DESC_GROUP=General Feature
1000
ChangeReason{0}=New
1000
NONBOUND=false
1000
BROKEN=false
1000
ChangeDate{0}=19910927
1000
THEME=Land
1000
ChangeReason{1}=Position
1000
TOID=1000002081607076
1000
PROC_DATE=20070430
1000
PHYS_LEVEL=50
1000
VER_DATE=20030211
1000
FID=osgb1000002081607076
1000
LA_CH_DATE=20011205
  0
LWPOLYLINE
  5
87E7A
330
A
100
AcDbEntity
  8
_off
100
AcDbPolyline
 90
       11
 70
     0
 43
0.0
 10
553929.74
 20
238714.33
 10
553928.14
 20
238718.93
 10
553929.0400000002
 20
238719.53
 10
553928.2400000001
 20
238721.93
 10
553927.44
 20
238721.63
 10
553925.84
 20
238726.83
 10
553927.24
 20
238728.23
 10
553927.3399999999
 20
238728.43
 10
553927.3399999999
 20
238728.63
 10
553927.44
 20
238728.83
 10
553927.44
 20
238729.53
1001
ACAD
1000
VersionDate=20030211
1000
ChangeDate{1}=20011213
1000
AccuracyOfPosition=2.5m
1000
PhysicalPresence=Obstructing
1000
ChunkOrigin=TL5038
1000
PhysicalLevel=50
1000
RuleNumber=5002
1000
ChunkName=69532-TL5038-5c152
1000
ProcessTime=15:53:03
1000
Theme=Buildings; Land
1000
LatestChangeDate=20011213
1000
QueryDate=20100910
1000
Broken=false
1000
QueryChangeSinceDate=
1000
FeatureCollectionID=GDS-69532-152
1000
NonBoundingLine=false
1000
Make=Manmade
1000
ChangeReason{0}=New
1000
DescriptiveGroup=Building
1000
ChangeDate{0}=19910927
1000
QueryTime=01:09:45
1000
ProcessDate=20110318
1000
Version=1
1000
Legend=0001 Building outline
1000
FeatureCode=10019
1000
ChangeReason{1}=Position
1000
TOID=1000002081979423
1000
LatestReasonForChange=Position
1000
DescriptiveTerm=Outline
1000
FID=osgb1000002081979423
  0
LWPOLYLINE
  5
88828
330
A
100
AcDbEntity
  8
_off
100
AcDbPolyline
 90
        3
 70
     0
 43
0.0
 10
553928.71
 20
238731.42
 10
553929.02
 20
238729.8900000001
 10
553927.44
 20
238729.53
1001
ACAD
1000
VersionDate=20030211
1000
ChangeDate{1}=20011213
1000
AccuracyOfPosition=2.5m
1000
PhysicalPresence=Obstructing
1000
ChunkOrigin=TL5038
1000
PhysicalLevel=50
1000
RuleNumber=5004
1000
ChunkName=69532-TL5038-5c152
1000
ProcessTime=15:53:03
1000
Theme=Land
1000
LatestChangeDate=20011213
1000
QueryDate=20100910
1000
Broken=false
1000
QueryChangeSinceDate=
1000
FeatureCollectionID=GDS-69532-152
1000
NonBoundingLine=false
1000
Make=
1000
ChangeReason{0}=New
1000
DescriptiveGroup=General Feature
1000
ChangeDate{0}=19910927
1000
QueryTime=01:09:45
1000
ProcessDate=20110318
1000
Version=2
1000
Legend=0030 Obstructing feature
1000
FeatureCode=10046
1000
ChangeReason{1}=Position
1000
TOID=1000002081611310
1000
LatestReasonForChange=Position
1000
DescriptiveTerm=
1000
FID=osgb1000002081611310
  0
LWPOLYLINE
  5
88829
330
A
100
AcDbEntity
  8
_off
100
AcDbPolyline
 90
       13
 70
     0
 43
0.0
 10
553927.44
 20
238729.53
 10
553927.3399999999
 20
238729.63
 10
553927.3399999999
 20
238729.83
 10
553927.14
 20
238730.23
 10
553927.0400000002
 20
238730.33
 10
553926.94
 20
238730.53
 10
553926.7399999999
 20
238730.63
 10
553926.64
 20
238730.73
 10
553926.44
 20
238730.83
 10
553926.34
 20
238730.93
 10
553926.14
 20
238731.03
 10
553925.1400000001
 20
238731.03
 10
553913.34
 20
238726.93
1001
ACAD
1000
VersionDate=20030211
1000
ChangeDate{1}=20011213
1000
AccuracyOfPosition=2.5m
1000
PhysicalPresence=Obstructing
1000
ChunkOrigin=TL5038
1000
PhysicalLevel=50
1000
RuleNumber=5002
1000
ChunkName=69532-TL5038-5c152
1000
ProcessTime=15:53:03
1000
Theme=Buildings; Land
1000
LatestChangeDate=20011213
1000
QueryDate=20100910
1000
Broken=false
1000
QueryChangeSinceDate=
1000
FeatureCollectionID=GDS-69532-152
1000
NonBoundingLine=false
1000
Make=Manmade
1000
ChangeReason{0}=New
1000
DescriptiveGroup=Building
1000
ChangeDate{0}=19910927
1000
QueryTime=01:09:45
1000
ProcessDate=20110318
1000
Version=2
1000
Legend=0001 Building outline
1000
FeatureCode=10019
1000
ChangeReason{1}=Position
1000
TOID=1000002081611309
1000
LatestReasonForChange=Position
1000
DescriptiveTerm=Outline
1000
FID=osgb1000002081611309
  0
LINE
  5
8882A
330
A
100
AcDbEntity
  8
_off
100
AcDbLine
 10
553913.34
 20
238726.93
 30
0.0
 11
553914.24
 21
238723.93
 31
0.0
1001
ACAD
1000
VersionDate=20030211
1000
ChangeDate{1}=20011213
1000
AccuracyOfPosition=2.5m
1000
PhysicalPresence=Obstructing
1000
ChunkOrigin=TL5038
1000
PhysicalLevel=50
1000
RuleNumber=5002
1000
ChunkName=69532-TL5038-5c152
1000
ProcessTime=15:53:03
1000
Theme=Buildings; Land
1000
LatestChangeDate=20011213
1000
QueryDate=20100910
1000
Broken=false
1000
QueryChangeSinceDate=
1000
FeatureCollectionID=GDS-69532-152
1000
NonBoundingLine=false
1000
Make=Manmade
1000
ChangeReason{0}=New
1000
DescriptiveGroup=Building
1000
ChangeDate{0}=19910927
1000
QueryTime=01:09:45
1000
ProcessDate=20110318
1000
Version=2
1000
Legend=0001 Building outline
1000
FeatureCode=10019
1000
ChangeReason{1}=Position
1000
TOID=1000002081611308
1000
LatestReasonForChange=Position
1000
DescriptiveTerm=Outline
1000
FID=osgb1000002081611308
  0
LWPOLYLINE
  5
8882B
330
A
100
AcDbEntity
  8
_off
100
AcDbPolyline
 90
        9
 70
     0
 43
0.0
 10
553914.24
 20
238723.93
 10
553922.0400000002
 20
238725.53
 10
553925.94
 20
238716.53
 10
553926.14
 20
238716.23
 10
553926.44
 20
238715.93
 10
553926.7399999999
 20
238715.73
 10
553926.94
 20
238715.43
 10
553927.5400000002
 20
238715.03
 10
553929.74
 20
238714.33
1001
ACAD
1000
VersionDate=20030211
1000
ChangeDate{1}=20011213
1000
AccuracyOfPosition=2.5m
1000
PhysicalPresence=Obstructing
1000
ChunkOrigin=TL5038
1000
PhysicalLevel=50
1000
RuleNumber=5002
1000
ChunkName=69532-TL5038-5c152
1000
ProcessTime=15:53:03
1000
Theme=Buildings; Land
1000
LatestChangeDate=20011213
1000
QueryDate=20100910
1000
Broken=false
1000
QueryChangeSinceDate=
1000
FeatureCollectionID=GDS-69532-152
1000
NonBoundingLine=false
1000
Make=Manmade
1000
ChangeReason{0}=New
1000
DescriptiveGroup=Building
1000
ChangeDate{0}=19910927
1000
QueryTime=01:09:45
1000
ProcessDate=20110318
1000
Version=2
1000
Legend=0001 Building outline
1000
FeatureCode=10019
1000
ChangeReason{1}=Position
1000
TOID=1000002081611307
1000
LatestReasonForChange=Position
1000
DescriptiveTerm=Outline
1000
FID=osgb1000002081611307
  0
LWPOLYLINE
  5
8882C
330
A
100
AcDbEntity
  8
_off
100
AcDbPolyline
 90
        7
 70
     0
 43
0.0
 10
553911.74
 20
238723.43
 10
553910.24
 20
238722.83
 10
553914.74
 20
238710.13
 10
553924.34
 20
238713.53
 10
553924.8399999999
 20
238712.03
 10
553926.94
 20
238712.73
 10
553927.5400000002
 20
238710.93
1001
ACAD
1000
VersionDate=20030211
1000
ChangeDate{1}=20011213
1000
AccuracyOfPosition=2.5m
1000
PhysicalPresence=Obstructing
1000
ChunkOrigin=TL5038
1000
PhysicalLevel=50
1000
RuleNumber=5002
1000
ChunkName=69532-TL5038-5c152
1000
ProcessTime=15:53:03
1000
Theme=Buildings; Land
1000
LatestChangeDate=20011213
1000
QueryDate=20100910
1000
Broken=false
1000
QueryChangeSinceDate=
1000
FeatureCollectionID=GDS-69532-152
1000
NonBoundingLine=false
1000
Make=Manmade
1000
ChangeReason{0}=New
1000
DescriptiveGroup=Building
1000
ChangeDate{0}=19910927
1000
QueryTime=01:09:45
1000
ProcessDate=20110318
1000
Version=2
1000
Legend=0001 Building outline
1000
FeatureCode=10019
1000
ChangeReason{1}=Position
1000
TOID=1000002081611306
1000
LatestReasonForChange=Position
1000
DescriptiveTerm=Outline
1000
FID=osgb1000002081611306
  0
LINE
  5
8882D
330
A
100
AcDbEntity
  8
_off
100
AcDbLine
 10
553910.74
 20
238726.33
 30
0.0
 11
553911.74
 21
238723.43
 31
0.0
1001
ACAD
1000
VersionDate=20030211
1000
ChangeDate{1}=20011213
1000
AccuracyOfPosition=2.5m
1000
PhysicalPresence=Obstructing
1000
ChunkOrigin=TL5038
1000
PhysicalLevel=50
1000
RuleNumber=5002
1000
ChunkName=69532-TL5038-5c152
1000
ProcessTime=15:53:03
1000
Theme=Buildings; Land
1000
LatestChangeDate=20011213
1000
QueryDate=20100910
1000
Broken=false
1000
QueryChangeSinceDate=
1000
FeatureCollectionID=GDS-69532-152
1000
NonBoundingLine=false
1000
Make=Manmade
1000
ChangeReason{0}=New
1000
DescriptiveGroup=Building
1000
ChangeDate{0}=19910927
1000
QueryTime=01:09:45
1000
ProcessDate=20110318
1000
Version=2
1000
Legend=0001 Building outline
1000
FeatureCode=10019
1000
ChangeReason{1}=Position
1000
TOID=1000002081611305
1000
LatestReasonForChange=Position
1000
DescriptiveTerm=Outline
1000
FID=osgb1000002081611305
  0
LWPOLYLINE
  5
88830
330
A
100
AcDbEntity
  8
_off
100
AcDbPolyline
 90
       18
 70
     0
 43
0.0
 10
553927.5400000002
 20
238710.93
 10
553912.84
 20
238705.83
 10
553910.0400000002
 20
238713.83
 10
553908.24
 20
238713.13
 10
553907.84
 20
238714.33
 10
553909.34
 20
238714.83
 10
553908.3399999999
 20
238717.63
 10
553905.34
 20
238716.63
 10
553905.5400000002
 20
238715.73
 10
553904.1400000004
 20
238715.23
 10
553903.94
 20
238716.03
 10
553902.94
 20
238715.73
 10
553902.34
 20
238717.53
 10
553907.34
 20
238719.33
 10
553906.24
 20
238722.63
 10
553900.84
 20
238720.73
 10
553900.14
 20
238722.63
 10
553910.74
 20
238726.33
1001
ACAD
1000
VersionDate=20030211
1000
ChangeDate{1}=20011213
1000
AccuracyOfPosition=2.5m
1000
PhysicalPresence=Obstructing
1000
ChunkOrigin=TL5038
1000
PhysicalLevel=50
1000
RuleNumber=5002
1000
ChunkName=69532-TL5038-5c152
1000
ProcessTime=15:53:03
1000
Theme=Buildings; Land
1000
LatestChangeDate=20011213
1000
QueryDate=20100910
1000
Broken=false
1000
QueryChangeSinceDate=
1000
FeatureCollectionID=GDS-69532-152
1000
NonBoundingLine=false
1000
Make=Manmade
1000
ChangeReason{0}=New
1000
DescriptiveGroup=Building
1000
ChangeDate{0}=19910927
1000
QueryTime=01:09:45
1000
ProcessDate=20110318
1000
Version=2
1000
Legend=0001 Building outline
1000
FeatureCode=10019
1000
ChangeReason{1}=Position
1000
TOID=1000002081611301
1000
LatestReasonForChange=Position
1000
DescriptiveTerm=Outline
1000
FID=osgb1000002081611301
  0
LINE
  5
89690
330
A
100
AcDbEntity
  8
_off
100
AcDbLine
 10
553913.34
 20
238726.93
 30
0.0
 11
553910.74
 21
238726.33
 31
0.0
1001
ACAD
1000
VersionDate=20030211
1000
ChangeDate{1}=20011205
1000
AccuracyOfPosition=2.5m
1000
PhysicalPresence=Obstructing
1000
ChunkOrigin=TL5038
1000
PhysicalLevel=50
1000
RuleNumber=5004
1000
ChunkName=69532-TL5038-5c152
1000
ProcessTime=15:53:03
1000
Theme=Land
1000
LatestChangeDate=20011205
1000
QueryDate=20100910
1000
Broken=false
1000
QueryChangeSinceDate=
1000
FeatureCollectionID=GDS-69532-152
1000
NonBoundingLine=false
1000
Make=
1000
ChangeReason{0}=New
1000
DescriptiveGroup=General Feature
1000
ChangeDate{0}=19910927
1000
QueryTime=01:09:45
1000
ProcessDate=20110318
1000
Version=2
1000
Legend=0030 Obstructing feature
1000
FeatureCode=10046
1000
ChangeReason{1}=Position
1000
TOID=1000002081607077
1000
LatestReasonForChange=Position
1000
DescriptiveTerm=
1000
FID=osgb1000002081607077
  0
LINE
  5
89691
330
A
100
AcDbEntity
  8
_off
100
AcDbLine
 10
553911.74
 20
238723.43
 30
0.0
 11
553914.24
 21
238723.93
 31
0.0
1001
ACAD
1000
VersionDate=20030211
1000
ChangeDate{1}=20011205
1000
AccuracyOfPosition=2.5m
1000
PhysicalPresence=Obstructing
1000
ChunkOrigin=TL5038
1000
PhysicalLevel=50
1000
RuleNumber=5004
1000
ChunkName=69532-TL5038-5c152
1000
ProcessTime=15:53:03
1000
Theme=Land
1000
LatestChangeDate=20011205
1000
QueryDate=20100910
1000
Broken=false
1000
QueryChangeSinceDate=
1000
FeatureCollectionID=GDS-69532-152
1000
NonBoundingLine=false
1000
Make=
1000
ChangeReason{0}=New
1000
DescriptiveGroup=General Feature
1000
ChangeDate{0}=19910927
1000
QueryTime=01:09:45
1000
ProcessDate=20110318
1000
Version=2
1000
Legend=0030 Obstructing feature
1000
FeatureCode=10046
1000
ChangeReason{1}=Position
1000
TOID=1000002081607076
1000
LatestReasonForChange=Position
1000
DescriptiveTerm=
1000
FID=osgb1000002081607076
  0
LWPOLYLINE
  5
8A3E4
330
A
100
AcDbEntity
  8
castleblock
  6
Continuous
100
AcDbPolyline
 90
       51
 70
   129
 43
0.0
 10
553917.0472455228
 20
238724.1278430206
 10
553916.7706274728
 20
238724.2741724237
 10
553916.1197472254
 20
238726.1114087665
 10
553915.338697849
 20
238726.4040652443
 10
553915.0295317497
 20
238726.5991703389
 10
553914.8179924976
 20
238727.2170004223
 10
553915.0295317497
 20
238727.3145541338
 10
553915.5176890518
 20
238727.5259177922
 10
553915.5990476412
 20
238727.9161256532
 10
553916.005846354
 20
238728.371370098
 10
553916.9821609581
 20
238728.7128045957
 10
553917.1936944434
 20
238728.1925258955
 10
553922.1729058446
 20
238729.8183962515
 10
553922.1625255315
 20
238730.1628179663
 10
553922.775886713
 20
238730.5407486675
 10
553923.3994667362
 20
238730.7961080045
 10
553924.462624195
 20
238730.8982508079
 10
553925.3008806318
 20
238731.1536101449
 10
553925.5973366139
 20
238731.1944672663
 10
553926.2106920285
 20
238730.7756794438
 10
553926.8138286014
 20
238729.0085973023
 10
553926.9978369558
 20
238728.3855215445
 10
553926.9671688967
 20
238728.2629501803
 10
553927.1818453101
 20
238727.4764436087
 10
553927.059173074
 20
238727.3334436839
 10
553928.4119239744
 20
238722.3178874444
 10
553928.9177566435
 20
238722.1631668249
 10
553929.1758400672
 20
238721.2760960416
 10
553928.95905299
 20
238720.7913030598
 10
553929.2480985817
 20
238719.3884937739
 10
553929.1848536392
 20
238718.7577974692
 10
553929.2782187909
 20
238717.9078398904
 10
553929.641299084
 20
238716.0524404293
 10
553930.0562521098
 20
238715.3890593586
 10
553930.4400814959
 20
238715.0573688234
 10
553930.6268117992
 20
238714.5701963125
 10
553930.5438211941
 20
238714.1141206623
 10
553930.2429824132
 20
238713.9171785339
 10
553929.8176548409
 20
238713.8964472934
 10
553929.3819584891
 20
238714.0933894217
 10
553928.7076648683
 20
238714.2799659299
 10
553928.3653279012
 20
238714.5598306922
 10
553928.178597598
 20
238714.6323877058
 10
553927.4939294307
 20
238714.7360415801
 10
553927.0582330789
 20
238715.1817516099
 10
553926.5291715754
 20
238715.5341733858
 10
553926.3735649118
 20
238715.7829412872
 10
553925.8859958273
 20
238717.5450524944
 10
553925.5021664411
 20
238718.7474318489
 10
553925.2739437189
 20
238719.0687590922
 10
553923.1957011853
 20
238726.0721255803
  0
POLYLINE
  5
8A3EF
330
A
100
AcDbEntity
  8
overhang
  6
Continuous
100
AcDb2dPolyline
 66
     1
 10
0.0
 20
0.0
 30
0.0
 70
   130
  0
VERTEX
  5
8A486
330
8A3EF
100
AcDbEntity
  8
overhang
  6
Continuous
100
AcDbVertex
100
AcDb2dVertex
 10
553903.2238847362
 20
238718.5182087665
 30
0.0
 42
-0.0952087625289425
  0
VERTEX
  5
8A49E
330
8A3EF
100
AcDbEntity
  8
overhang
  6
Continuous
100
AcDbVertex
100
AcDb2dVertex
 10
553903.001116847
 20
238718.5806963838
 30
0.0
 42
-0.1230822979611578
 70
     1
  0
VERTEX
  5
8A487
330
8A3EF
100
AcDbEntity
  8
overhang
  6
Continuous
100
AcDbVertex
100
AcDb2dVertex
 10
553902.8643696681
 20
238718.6978202954
 30
0.0
 42
-0.1306897701077774
  0
VERTEX
  5
8A49F
330
8A3EF
100
AcDbEntity
  8
overhang
  6
Continuous
100
AcDbVertex
100
AcDb2dVertex
 10
553902.7936176695
 20
238718.8871074718
 30
0.0
 42
0.1803793292252289
 70
     1
  0
VERTEX
  5
8A488
330
8A3EF
100
AcDbEntity
  8
overhang
  6
Continuous
100
AcDbVertex
100
AcDb2dVertex
 10
553902.7283356618
 20
238719.020639983
 30
0.0
 42
0.0362353452253523
  0
VERTEX
  5
8A4A0
330
8A3EF
100
AcDbEntity
  8
overhang
  6
Continuous
100
AcDbVertex
100
AcDb2dVertex
 10
553902.5913774349
 20
238719.1329235297
 30
0.0
 42
0.0361398939556174
 70
     1
  0
VERTEX
  5
8A489
330
8A3EF
100
AcDbEntity
  8
overhang
  6
Continuous
100
AcDbVertex
100
AcDb2dVertex
 10
553902.439261236
 20
238719.2245274496
 30
0.0
 42
0.022393744187826
  0
VERTEX
  5
8A4A1
330
8A3EF
100
AcDbEntity
  8
overhang
  6
Continuous
100
AcDbVertex
100
AcDb2dVertex
 10
553902.3648938275
 20
238719.2581853366
 30
0.0
 42
0.0179822040767819
 70
     1
  0
VERTEX
  5
8A48A
330
8A3EF
100
AcDbEntity
  8
overhang
  6
Continuous
100
AcDbVertex
100
AcDb2dVertex
 10
553902.2692201696
 20
238719.2924883862
 30
0.0
 42
0.1552609593630659
  0
VERTEX
  5
8A4A2
330
8A3EF
100
AcDbEntity
  8
overhang
  6
Continuous
100
AcDbVertex
100
AcDb2dVertex
 10
553902.0657766815
 20
238719.2925375592
 30
0.0
 42
0.1516699511685507
 70
     1
  0
VERTEX
  5
8A48B
330
8A3EF
100
AcDbEntity
  8
overhang
  6
Continuous
100
AcDbVertex
100
AcDb2dVertex
 10
553901.8951252108
 20
238719.1735538367
 30
0.0
 42
0.1137916053965342
  0
VERTEX
  5
8A4A3
330
8A3EF
100
AcDbEntity
  8
overhang
  6
Continuous
100
AcDbVertex
100
AcDb2dVertex
 10
553901.8064309501
 20
238718.9823228559
 30
0.0
 42
0.0519721467627508
 70
     1
  0
VERTEX
  5
8A48C
330
8A3EF
100
AcDbEntity
  8
overhang
  6
Continuous
100
AcDbVertex
100
AcDb2dVertex
 10
553901.7590854375
 20
238718.5279144612
 30
0.0
 42
0.0221778671599887
  0
VERTEX
  5
8A4A4
330
8A3EF
100
AcDbEntity
  8
overhang
  6
Continuous
100
AcDbVertex
100
AcDb2dVertex
 10
553901.7796039972
 20
238718.0659047617
 30
0.0
 42
0.0335094823693356
 70
     1
  0
VERTEX
  5
8A48D
330
8A3EF
100
AcDbEntity
  8
overhang
  6
Continuous
100
AcDbVertex
100
AcDb2dVertex
 10
553901.827105324
 20
238717.7633405363
 30
0.0
 42
0.0483066749702391
  0
VERTEX
  5
8A4A5
330
8A3EF
100
AcDbEntity
  8
overhang
  6
Continuous
100
AcDbVertex
100
AcDb2dVertex
 10
553901.9476023873
 20
238717.3988219528
 30
0.0
 42
0.0737985040982902
 70
     1
  0
VERTEX
  5
8A48E
330
8A3EF
100
AcDbEntity
  8
overhang
  6
Continuous
100
AcDbVertex
100
AcDb2dVertex
 10
553902.0821726902
 20
238717.1856620975
 30
0.0
 42
0.0601902909863179
  0
VERTEX
  5
8A4A6
330
8A3EF
100
AcDbEntity
  8
overhang
  6
Continuous
100
AcDbVertex
100
AcDb2dVertex
 10
553902.2331545773
 20
238717.0477728492
 30
0.0
 42
0.0518844982909693
 70
     1
  0
VERTEX
  5
8A48F
330
8A3EF
100
AcDbEntity
  8
overhang
  6
Continuous
100
AcDbVertex
100
AcDb2dVertex
 10
553902.439261236
 20
238716.9308033465
 30
0.0
 42
0.0454334945437055
  0
VERTEX
  5
8A4A7
330
8A3EF
100
AcDbEntity
  8
overhang
  6
Continuous
100
AcDbVertex
100
AcDb2dVertex
 10
553902.7193427436
 20
238716.8374543521
 30
0.0
 42
0.0445450192402674
 70
     1
  0
VERTEX
  5
8A490
330
8A3EF
100
AcDbEntity
  8
overhang
  6
Continuous
100
AcDbVertex
100
AcDb2dVertex
 10
553903.0174100879
 20
238716.7948791448
 30
0.0
 42
0.0791703628995937
  0
VERTEX
  5
8A4A8
330
8A3EF
100
AcDbEntity
  8
overhang
  6
Continuous
100
AcDbVertex
100
AcDb2dVertex
 10
553903.41519972
 20
238716.8368673878
 30
0.0
 42
-0.0784343405178258
 70
     1
  0
VERTEX
  5
8A491
330
8A3EF
100
AcDbEntity
  8
overhang
  6
Continuous
100
AcDbVertex
100
AcDb2dVertex
 10
553903.816613479
 20
238716.8798320618
 30
0.0
 42
-0.0242476141481337
  0
VERTEX
  5
8A4A9
330
8A3EF
100
AcDbEntity
  8
overhang
  6
Continuous
100
AcDbVertex
100
AcDb2dVertex
 10
553904.032798864
 20
238716.8584890839
 30
0.0
 42
-0.0479145770495396
 70
     1
  0
VERTEX
  5
8A492
330
8A3EF
100
AcDbEntity
  8
overhang
  6
Continuous
100
AcDbVertex
100
AcDb2dVertex
 10
553904.139694965
 20
238716.8320296023
 30
0.0
 42
-0.085359920874171
  0
VERTEX
  5
8A4AA
330
8A3EF
100
AcDbEntity
  8
overhang
  6
Continuous
100
AcDbVertex
100
AcDb2dVertex
 10
553904.281704619
 20
238716.7528354083
 30
0.0
 42
-0.0529955040902785
 70
     1
  0
VERTEX
  5
8A493
330
8A3EF
100
AcDbEntity
  8
overhang
  6
Continuous
100
AcDbVertex
100
AcDb2dVertex
 10
553904.4661615861
 20
238716.5685584458
 30
0.0
 42
-0.0713052714911222
  0
VERTEX
  5
8A4AB
330
8A3EF
100
AcDbEntity
  8
overhang
  6
Continuous
100
AcDbVertex
100
AcDb2dVertex
 10
553904.6361738106
 20
238716.2834013888
 30
0.0
 42
0.0769436162337389
 70
     1
  0
VERTEX
  5
8A494
330
8A3EF
100
AcDbEntity
  8
overhang
  6
Continuous
100
AcDbVertex
100
AcDb2dVertex
 10
553904.7968149339
 20
238716.0207056124
 30
0.0
 42
0.0145973731317996
  0
VERTEX
  5
8A4AC
330
8A3EF
100
AcDbEntity
  8
overhang
  6
Continuous
100
AcDbVertex
100
AcDb2dVertex
 10
553904.9668172933
 20
238715.8313584151
 30
0.0
 42
0.0169436504257979
 70
     1
  0
VERTEX
  5
8A495
330
8A3EF
100
AcDbEntity
  8
overhang
  6
Continuous
100
AcDbVertex
100
AcDb2dVertex
 10
553905.1232815554
 20
238715.6777763419
 30
0.0
 42
0.0257163799554501
  0
VERTEX
  5
8A4AD
330
8A3EF
100
AcDbEntity
  8
overhang
  6
Continuous
100
AcDbVertex
100
AcDb2dVertex
 10
553905.2420051667
 20
238715.5796302858
 30
0.0
 42
0.0560197246972245
 70
     1
  0
VERTEX
  5
8A496
330
8A3EF
100
AcDbEntity
  8
overhang
  6
Continuous
100
AcDbVertex
100
AcDb2dVertex
 10
553905.303258888
 20
238715.5439499445
 30
0.0
 42
0.1357706634624123
  0
VERTEX
  5
8A4AE
330
8A3EF
100
AcDbEntity
  8
overhang
  6
Continuous
100
AcDbVertex
100
AcDb2dVertex
 10
553905.3828260811
 20
238715.5322791819
 30
0.0
 42
0.06724827634376
 70
     1
  0
VERTEX
  5
8A497
330
8A3EF
100
AcDbEntity
  8
overhang
  6
Continuous
100
AcDbVertex
100
AcDb2dVertex
 10
553905.537646363
 20
238715.5732237413
 30
0.0
 42
0.0284875461684062
  0
VERTEX
  5
8A4AF
330
8A3EF
100
AcDbEntity
  8
overhang
  6
Continuous
100
AcDbVertex
100
AcDb2dVertex
 10
553905.6413885028
 20
238715.6233113064
 30
0.0
 42
0.0326243465104117
 70
     1
  0
VERTEX
  5
8A498
330
8A3EF
100
AcDbEntity
  8
overhang
  6
Continuous
100
AcDbVertex
100
AcDb2dVertex
 10
553905.7259913818
 20
238715.6777763419
 30
0.0
 42
0.0501335718575605
  0
VERTEX
  5
8A4B0
330
8A3EF
100
AcDbEntity
  8
overhang
  6
Continuous
100
AcDbVertex
100
AcDb2dVertex
 10
553905.8078424946
 20
238715.7521235162
 30
0.0
 42
0.0479259395143355
 70
     1
  0
VERTEX
  5
8A499
330
8A3EF
100
AcDbEntity
  8
overhang
  6
Continuous
100
AcDbVertex
100
AcDb2dVertex
 10
553905.8766673965
 20
238715.8450581746
 30
0.0
 42
0.0969366576834018
  0
VERTEX
  5
8A4B1
330
8A3EF
100
AcDbEntity
  8
overhang
  6
Continuous
100
AcDbVertex
100
AcDb2dVertex
 10
553905.9269571538
 20
238715.9835181842
 30
0.0
 42
0.1106036324733949
 70
     1
  0
VERTEX
  5
8A49A
330
8A3EF
100
AcDbEntity
  8
overhang
  6
Continuous
100
AcDbVertex
100
AcDb2dVertex
 10
553905.9185231267
 20
238716.112713298
 30
0.0
 42
0.0308326085234345
  0
VERTEX
  5
8A4B3
330
8A3EF
100
AcDbEntity
  8
overhang
  6
Continuous
100
AcDbVertex
100
AcDb2dVertex
 10
553905.8907022869
 20
238716.1896093731
 30
0.0
 42
0.0112567965771375
 70
     1
  0
VERTEX
  5
8A49B
330
8A3EF
100
AcDbEntity
  8
overhang
  6
Continuous
100
AcDbVertex
100
AcDb2dVertex
 10
553905.7971426628
 20
238716.392911008
 30
0.0
 42
0.0238088401248085
  0
VERTEX
  5
8A4B2
330
8A3EF
100
AcDbEntity
  8
overhang
  6
Continuous
100
AcDbVertex
100
AcDb2dVertex
 10
553905.7243966936
 20
238716.5256214691
 30
0.0
 42
0.0394667833961028
 70
     1
  0
VERTEX
  5
8A49C
330
8A3EF
100
AcDbEntity
  8
overhang
  6
Continuous
100
AcDbVertex
100
AcDb2dVertex
 10
553905.4831685273
 20
238716.8579168753
 30
0.0
  0
SEQEND
  5
8A49D
330
8A3EF
100
AcDbEntity
  8
overhang
  6
Continuous
  0
POLYLINE
  5
8A503
330
A
100
AcDbEntity
  8
overhang
  6
Continuous
100
AcDb2dPolyline
 66
     1
 10
0.0
 20
0.0
 30
0.0
 70
   130
  0
VERTEX
  5
8A504
330
8A503
100
AcDbEntity
  8
overhang
  6
Continuous
100
AcDbVertex
100
AcDb2dVertex
 10
553900.5090823387
 20
238722.9123809122
 30
0.0
 42
0.0222019380455691
  0
VERTEX
  5
8A511
330
8A503
100
AcDbEntity
  8
overhang
  6
Continuous
100
AcDbVertex
100
AcDb2dVertex
 10
553900.4758337055
 20
238722.6655076677
 30
0.0
 42
0.040876074498934
 70
     1
  0
VERTEX
  5
8A505
330
8A503
100
AcDbEntity
  8
overhang
  6
Continuous
100
AcDbVertex
100
AcDb2dVertex
 10
553900.4747811699
 20
238722.5300520404
 30
0.0
 42
0.0113968011264989
  0
VERTEX
  5
8A512
330
8A503
100
AcDbEntity
  8
overhang
  6
Continuous
100
AcDbVertex
100
AcDb2dVertex
 10
553900.5094736625
 20
238722.1725151129
 30
0.0
 42
0.0255713741189596
 70
     1
  0
VERTEX
  5
8A506
330
8A503
100
AcDbEntity
  8
overhang
  6
Continuous
100
AcDbVertex
100
AcDb2dVertex
 10
553900.5366766716
 20
238722.0146604553
 30
0.0
 42
0.0266016753877177
  0
VERTEX
  5
8A513
330
8A503
100
AcDbEntity
  8
overhang
  6
Continuous
100
AcDbVertex
100
AcDb2dVertex
 10
553900.6240059661
 20
238721.7051164778
 30
0.0
 42
0.0223131587759532
 70
     1
  0
VERTEX
  5
8A507
330
8A503
100
AcDbEntity
  8
overhang
  6
Continuous
100
AcDbVertex
100
AcDb2dVertex
 10
553900.763630689
 20
238721.3480849483
 30
0.0
 42
0.0176344833758344
  0
VERTEX
  5
8A514
330
8A503
100
AcDbEntity
  8
overhang
  6
Continuous
100
AcDbVertex
100
AcDb2dVertex
 10
553900.8955022246
 20
238721.0769406986
 30
0.0
 42
0.0250401002331347
 70
     1
  0
VERTEX
  5
8A508
330
8A503
100
AcDbEntity
  8
overhang
  6
Continuous
100
AcDbVertex
100
AcDb2dVertex
 10
553901.0043443885
 20
238720.8945401673
 30
0.0
 42
0.0316145934207794
  0
VERTEX
  5
8A515
330
8A503
100
AcDbEntity
  8
overhang
  6
Continuous
100
AcDbVertex
100
AcDb2dVertex
 10
553901.154684755
 20
238720.6973026837
 30
0.0
 42
0.0482826741338089
 70
     1
  0
VERTEX
  5
8A509
330
8A503
100
AcDbEntity
  8
overhang
  6
Continuous
100
AcDbVertex
100
AcDb2dVertex
 10
553901.2725659183
 20
238720.5853038194
 30
0.0
 42
0.0153557526269856
  0
VERTEX
  5
8A516
330
8A503
100
AcDbEntity
  8
overhang
  6
Continuous
100
AcDbVertex
100
AcDb2dVertex
 10
553901.3524816493
 20
238720.5267153122
 30
0.0
 42
0.0090566262538329
 70
     1
  0
VERTEX
  5
8A50A
330
8A503
100
AcDbEntity
  8
overhang
  6
Continuous
100
AcDbVertex
100
AcDb2dVertex
 10
553901.4926458616
 20
238720.4341222257
 30
0.0
 42
0.0185557141087746
  0
VERTEX
  5
8A517
330
8A503
100
AcDbEntity
  8
overhang
  6
Continuous
100
AcDbVertex
100
AcDb2dVertex
 10
553901.6031510336
 20
238720.3695868771
 30
0.0
 42
0.0261988094938719
 70
     1
  0
VERTEX
  5
8A50B
330
8A503
100
AcDbEntity
  8
overhang
  6
Continuous
100
AcDbVertex
100
AcDb2dVertex
 10
553901.6852179745
 20
238720.331043443
 30
0.0
 42
0.1451393883460237
  0
VERTEX
  5
8A518
330
8A503
100
AcDbEntity
  8
overhang
  6
Continuous
100
AcDbVertex
100
AcDb2dVertex
 10
553901.7719872985
 20
238720.3224750836
 30
0.0
 42
0.1239065669955849
 70
     1
  0
VERTEX
  5
8A50C
330
8A503
100
AcDbEntity
  8
overhang
  6
Continuous
100
AcDbVertex
100
AcDb2dVertex
 10
553901.8640304054
 20
238720.3654022611
 30
0.0
 42
0.0669022625054169
  0
VERTEX
  5
8A519
330
8A503
100
AcDbEntity
  8
overhang
  6
Continuous
100
AcDbVertex
100
AcDb2dVertex
 10
553901.9390059812
 20
238720.4452016417
 30
0.0
 42
0.0567902185226612
 70
     1
  0
VERTEX
  5
8A50D
330
8A503
100
AcDbEntity
  8
overhang
  6
Continuous
100
AcDbVertex
100
AcDb2dVertex
 10
553902.0015810907
 20
238720.5578158335
 30
0.0
 42
0.0117346175020596
  0
VERTEX
  5
8A51B
330
8A503
100
AcDbEntity
  8
overhang
  6
Continuous
100
AcDbVertex
100
AcDb2dVertex
 10
553902.0287221465
 20
238720.6277396325
 30
0.0
 42
0.0046794608577771
 70
     1
  0
VERTEX
  5
8A50E
330
8A503
100
AcDbEntity
  8
overhang
  6
Continuous
100
AcDbVertex
100
AcDb2dVertex
 10
553902.090984423
 20
238720.8052053776
 30
0.0
 42
0.0277263624568079
  0
VERTEX
  5
8A51A
330
8A503
100
AcDbEntity
  8
overhang
  6
Continuous
100
AcDbVertex
100
AcDb2dVertex
 10
553902.1384187919
 20
238720.974863519
 30
0.0
 42
0.0199396051595801
 70
     1
  0
VERTEX
  5
8A50F
330
8A503
100
AcDbEntity
  8
overhang
  6
Continuous
100
AcDbVertex
100
AcDb2dVertex
 10
553902.1816103251
 20
238721.2158930219
 30
0.0
  0
SEQEND
  5
8A510
330
8A503
100
AcDbEntity
  8
overhang
  6
Continuous
  0
LWPOLYLINE
  5
8A5B4
330
A
100
AcDbEntity
  8
trench
  6
Continuous
100
AcDbPolyline
 90
        8
 70
   128
 43
0.0
 10
553903.5598520837
 20
238716.9876975977
 10
553903.9375949418
 20
238716.4880488448
 10
553902.471971631
 20
238715.421913769
 10
553901.57584984
 20
238717.0059284819
 10
553901.57584984
 20
238717.0059284819
 10
553901.9839685222
 20
238717.2635958414
 10
553902.7713826257
 20
238717.7824530389
 10
553902.9104590163
 20
238717.6351503963
  0
LWPOLYLINE
  5
8A5B5
330
A
100
AcDbEntity
  8
trench
  6
Continuous
100
AcDbPolyline
 90
        6
 70
   128
 43
0.0
 10
553904.7248235451
 20
238716.4867174183
 10
553904.3261482576
 20
238716.3001815327
 10
553905.0081284671
 20
238714.8705499572
 10
553906.5256734287
 20
238715.6604990245
 10
553905.8519632232
 20
238716.9196246756
 10
553905.4904445894
 20
238716.7318809815
  0
LWPOLYLINE
  5
8A5B8
330
A
100
AcDbEntity
  8
brkslp
  6
Continuous
100
AcDbPolyline
 90
       24
 70
   128
 43
0.0
 10
553906.0123094374
 20
238715.3932704308
 10
553905.8915318486
 20
238715.5772115277
 10
553905.8646509865
 20
238715.6309902045
 10
553905.849533163
 20
238715.6823209485
 10
553905.8257762401
 20
238715.7341710631
 10
553905.7899477915
 20
238715.7928095319
 10
553905.7624690043
 20
238715.8356694012
 10
553905.7345659864
 20
238715.8794551655
 10
553905.7055060192
 20
238715.9294331408
 10
553905.6742091553
 20
238715.9806260642
 10
553905.6416202286
 20
238716.027304672
 10
553905.6013949881
 20
238716.0772035623
 10
553905.5666847478
 20
238716.115065819
 10
553905.5291976369
 20
238716.1516543919
 10
553905.4880272422
 20
238716.1803908952
 10
553905.4394902812
 20
238716.1934232588
 10
553905.390201231
 20
238716.2044299383
 10
553905.3396009074
 20
238716.217076127
 10
553905.2897140918
 20
238716.2306098244
 10
553905.2424691935
 20
238716.2481565038
 10
553905.1851969206
 20
238716.2790315376
 10
553905.1448171964
 20
238716.3109319005
 10
553905.1098562595
 20
238716.348118929
 10
553905.07143869
 20
238716.3992648238
  0
LWPOLYLINE
  5
8A5B9
330
A
100
AcDbEntity
  8
brkslp
  6
Continuous
100
AcDbPolyline
 90
        9
 70
   128
 43
0.0
 10
553905.2157209824
 20
238716.1498837136
 10
553905.1180496777
 20
238716.1664377218
 10
553905.0668130079
 20
238716.1804727528
 10
553905.0216316319
 20
238716.2118514327
 10
553904.9785907803
 20
238716.2458926384
 10
553904.9401780458
 20
238716.2820566502
 10
553904.8980436072
 20
238716.3226762422
 10
553904.8674986721
 20
238716.3624490244
 10
553904.8431026994
 20
238716.4156938823
  0
LWPOLYLINE
  5
8A5BA
330
A
100
AcDbEntity
  8
brkslp
  6
Continuous
100
AcDbPolyline
 90
       17
 70
   128
 43
0.0
 10
553905.3963003771
 20
238716.202905621
 10
553905.2973883467
 20
238716.1747444153
 10
553905.2449364562
 20
238716.1596498306
 10
553905.1953963896
 20
238716.143089631
 10
553905.1578505276
 20
238716.1040189006
 10
553905.1373899585
 20
238716.0582185519
 10
553905.1013482743
 20
238716.0231991898
 10
553905.0535051307
 20
238716.0029354108
 10
553905.0038686916
 20
238715.9902526851
 10
553904.9406373379
 20
238715.9864607705
 10
553904.8902103888
 20
238715.9840600109
 10
553904.8410753427
 20
238715.9727277413
 10
553904.7921330411
 20
238715.9536405239
 10
553904.732719604
 20
238715.9280697298
 10
553904.6744246953
 20
238715.9086143743
 10
553904.6263502259
 20
238715.8949673676
 10
553904.5168077702
 20
238715.9005029853
  0
LWPOLYLINE
  5
8A5BC
330
A
100
AcDbEntity
  8
brkslp
  6
Continuous
100
AcDbPolyline
 90
       10
 70
   128
 43
0.0
 10
553906.1032879231
 20
238716.401039192
 10
553906.0379242705
 20
238716.394519126
 10
553905.9860510946
 20
238716.3964971739
 10
553905.9342936618
 20
238716.4018897484
 10
553905.8763848828
 20
238716.4207077989
 10
553905.8311649257
 20
238716.4509483032
 10
553905.7871790801
 20
238716.4772729474
 10
553905.7424605156
 20
238716.5088639078
 10
553905.6923809553
 20
238716.5301525531
 10
553905.6843204108
 20
238716.5342987307
  0
LWPOLYLINE
  5
8A5BD
330
A
100
AcDbEntity
  8
brkslp
  6
Continuous
100
AcDbPolyline
 90
        3
 70
   128
 43
0.0
 10
553905.5933602136
 20
238716.6264747592
 10
553905.5508785459
 20
238716.6568507717
 10
553905.529756928
 20
238716.6800899934
  0
LWPOLYLINE
  5
8A5BE
330
A
100
AcDbEntity
  8
brkslp
  6
Continuous
100
AcDbPolyline
 90
       19
 70
   128
 43
0.0
 10
553902.9544520673
 20
238717.4682009447
 10
553902.9079367942
 20
238717.4471447019
 10
553902.8639466739
 20
238717.4204310036
 10
553902.824168693
 20
238717.385512429
 10
553902.7831174808
 20
238717.3497499345
 10
553902.7389734592
 20
238717.3186577115
 10
553902.6979329023
 20
238717.2865678647
 10
553902.6577464936
 20
238717.2568769551
 10
553902.6172789207
 20
238717.2276106158
 10
553902.5772251029
 20
238717.1949529356
 10
553902.5263544446
 20
238717.1813956916
 10
553902.4812402654
 20
238717.2052551424
 10
553902.4418026521
 20
238717.2389864293
 10
553902.4242964672
 20
238717.2884761126
 10
553902.4035329167
 20
238717.334584895
 10
553902.370334198
 20
238717.3773388773
 10
553902.3410984196
 20
238717.4233304971
 10
553902.3118519865
 20
238717.465649469
 10
553902.3002215163
 20
238717.4719870063
  0
LWPOLYLINE
  5
8A5BF
330
A
100
AcDbEntity
  8
brkslp
  6
Continuous
100
AcDbPolyline
 90
       19
 70
   128
 43
0.0
 10
553903.3971845391
 20
238716.0949393184
 10
553903.3584024459
 20
238716.1481369433
 10
553903.3325619518
 20
238716.1963790169
 10
553903.3149178487
 20
238716.2469991471
 10
553903.2925999023
 20
238716.2926885795
 10
553903.2714172686
 20
238716.3403523793
 10
553903.2435926406
 20
238716.386057472
 10
553903.197910805
 20
238716.4089297391
 10
553903.1472419963
 20
238716.4162779355
 10
553903.0965252387
 20
238716.4070992163
 10
553903.070842775
 20
238716.3638064016
 10
553903.0839669365
 20
238716.3126340981
 10
553903.1023219425
 20
238716.2637070282
 10
553903.1201039639
 20
238716.211956451
 10
553903.1412812697
 20
238716.1624563274
 10
553903.1614771637
 20
238716.1153603614
 10
553903.1762936396
 20
238716.0634769609
 10
553903.193099577
 20
238716.0159668649
 10
553903.205735833
 20
238715.9556742158
  0
LWPOLYLINE
  5
8A5C0
330
A
100
AcDbEntity
  8
brkslp
  6
Continuous
100
AcDbPolyline
 90
       35
 70
   128
 43
0.0
 10
553903.1378950467
 20
238715.9063249447
 10
553903.0948802079
 20
238715.9374248681
 10
553903.0642332796
 20
238715.9837030147
 10
553903.0366951434
 20
238716.0308198613
 10
553903.0169236602
 20
238716.0781971341
 10
553903.0064785528
 20
238716.1280905069
 10
553903.0012589628
 20
238716.1783927894
 10
553902.9809198228
 20
238716.2247828788
 10
553902.9436149171
 20
238716.2635933469
 10
553902.8952700105
 20
238716.2932535165
 10
553902.8384528761
 20
238716.322796523
 10
553902.7872590316
 20
238716.3438481268
 10
553902.7239218382
 20
238716.364793008
 10
553902.6639799292
 20
238716.3879883431
 10
553902.6183034212
 20
238716.4126969341
 10
553902.5780223146
 20
238716.4477019313
 10
553902.5339268405
 20
238716.4820114918
 10
553902.486993084
 20
238716.5113851344
 10
553902.4366587155
 20
238716.5366719994
 10
553902.3996243192
 20
238716.5713852496
 10
553902.3653115975
 20
238716.6195101603
 10
553902.3343728497
 20
238716.6625402293
 10
553902.3023307546
 20
238716.7146138743
 10
553902.2753496197
 20
238716.7590452568
 10
553902.2486496499
 20
238716.803052069
 10
553902.2199708727
 20
238716.8463582248
 10
553902.1983585012
 20
238716.8919043938
 10
553902.1720829415
 20
238716.9361925128
 10
553902.1475156792
 20
238716.9852785064
 10
553902.1201048064
 20
238717.0275922581
 10
553902.0928584901
 20
238717.0779571825
 10
553902.0687103106
 20
238717.1254881589
 10
553902.0466841836
 20
238717.174425669
 10
553902.0256394685
 20
238717.2209590216
 10
553901.9901688496
 20
238717.2676814734
  0
LWPOLYLINE
  5
8A5C1
330
A
100
AcDbEntity
  8
feature
  6
Continuous
100
AcDbPolyline
 90
       12
 70
   128
 43
0.0
 10
553906.134915024
 20
238715.4570920448
 10
553906.1072722394
 20
238715.5242494307
 10
553906.1082393801
 20
238715.5746018702
 10
553906.1251143148
 20
238715.6274326625
 10
553906.1408793009
 20
238715.6779716251
 10
553906.1550818549
 20
238715.7259852701
 10
553906.1770616719
 20
238715.7711357545
 10
553906.2082187232
 20
238715.8107073169
 10
553906.2520245909
 20
238715.8401880373
 10
553906.3018544817
 20
238715.8613166835
 10
553906.3491744522
 20
238715.8828692606
 10
553906.3983315184
 20
238715.8984937356
  0
LWPOLYLINE
  5
8A5C4
330
A
100
AcDbEntity
  8
section
  6
Continuous
100
AcDbPolyline
 90
        2
 70
   128
 43
0.0
 10
553902.6931372745
 20
238716.3767055126
 10
553902.140056829
 20
238716.014058778
  0
LWPOLYLINE
  5
8A5C5
330
A
100
AcDbEntity
  8
feature
  6
Continuous
100
AcDbPolyline
 90
       12
 70
   129
 43
0.0
 10
553905.589522606
 20
238716.6140699874
 10
553905.5987785211
 20
238716.5914239486
 10
553905.5987974117
 20
238716.5583784726
 10
553905.6026153284
 20
238716.5365995929
 10
553905.6193726033
 20
238716.5134725698
 10
553905.6385212591
 20
238716.5071291261
 10
553905.6644387165
 20
238716.5190168399
 10
553905.7026209249
 20
238716.5566987278
 10
553905.7021198523
 20
238716.5822399226
 10
553905.6822002169
 20
238716.6196031581
 10
553905.6352253854
 20
238716.645117066
 10
553905.5978725879
 20
238716.6251830389
  0
LWPOLYLINE
  5
8A5C6
330
A
100
AcDbEntity
  8
feature
  6
Continuous
100
AcDbPolyline
 90
       14
 70
   129
 43
0.0
 10
553905.8972900129
 20
238716.5535492063
 10
553905.8729351651
 20
238716.5944805132
 10
553905.8624451389
 20
238716.6210424122
 10
553905.8732250823
 20
238716.6500772187
 10
553905.8822693618
 20
238716.6682316036
 10
553905.8969635945
 20
238716.6716100564
 10
553905.9174235234
 20
238716.6636271036
 10
553905.928955076
 20
238716.6543501176
 10
553905.9312108632
 20
238716.6200896936
 10
553905.9389627598
 20
238716.6068381118
 10
553905.9567999823
 20
238716.5886883519
 10
553905.9546786686
 20
238716.579872001
 10
553905.9397143689
 20
238716.5685263197
 10
553905.9144718389
 20
238716.5563879391
  0
ELLIPSE
  5
8A5C7
330
A
100
AcDbEntity
  8
feature
  6
Continuous
100
AcDbEllipse
 10
553905.787141059
 20
238716.5231951609
 30
0.0
 11
-0.0222920454397761
 21
-0.0057429071776017
 31
0.0
210
0.0
220
0.0
230
1.0
 40
0.5554317482178718
 41
0.0
 42
6.283185307179584
  0
LWPOLYLINE
  5
8A6CE
330
A
100
AcDbEntity
  8
trench
  6
Continuous
100
AcDbPolyline
 90
        4
 70
   129
 43
0.0
 10
553901.7215978918
 20
238717.7524861892
 10
553903.3198064324
 20
238718.5805740232
 10
553902.5377234782
 20
238720.0899932004
 10
553900.9395149373
 20
238719.2619053664
  0
LWPOLYLINE
  5
8A765
330
A
100
AcDbEntity
  8
castleblock
  6
Continuous
100
AcDbPolyline
 90
      244
 70
   129
 43
0.0
 10
553905.4896746817
 20
238716.7268724572
 10
553905.4904445894
 20
238716.7318809815
 10
553905.4777288877
 20
238716.9521422749
 10
553905.525230355
 20
238717.1682393804
 10
553905.6496960786
 20
238717.4169723572
 10
553905.9635736867
 20
238717.6116327454
 10
553907.229896945
 20
238718.0279921443
 10
553907.9483357316
 20
238718.2674025821
 10
553908.3061855002
 20
238718.3627537157
 10
553908.5890605726
 20
238718.424048711
 10
553908.7560567467
 20
238718.403617822
 10
553908.9605489194
 20
238718.2095115708
 10
553909.1650353253
 20
238717.8417346141
 10
553909.3490725139
 20
238717.2934719988
 10
553909.3848326934
 20
238716.9696301846
 10
553909.5908242448
 20
238716.2355174927
 10
553909.6560587474
 20
238715.9953852798
 10
553909.6697895951
 20
238715.7483938763
 10
553909.5667938195
 20
238715.5768721975
 10
553909.141074102
 20
238715.3916298089
 10
553908.7471642782
 20
238715.2331722576
 10
553908.4050118501
 20
238715.0512081245
 10
553908.2725705856
 20
238714.9243829445
 10
553908.2449762528
 20
238714.7369053818
 10
553908.3663855508
 20
238714.4887707797
 10
553908.6036852807
 20
238714.2792348417
 10
553908.9458319418
 20
238714.2516653652
 10
553909.3486919025
 20
238714.2847482714
 10
553909.8177667286
 20
238714.35643217
 10
553910.0550664583
 20
238714.2902640293
 10
553910.3254736208
 20
238713.6892280203
 10
553910.5028731757
 20
238713.4880390609
 10
553910.4973139411
 20
238713.1158755749
 10
553910.7697106637
 20
238712.6270616079
 10
553910.9869533214
 20
238711.8971026148
 10
553910.9204328133
 20
238711.6277408429
 10
553910.9694451928
 20
238711.2639243354
 10
553911.2740381873
 20
238710.9700757647
 10
553911.5546353572
 20
238710.3222431246
 10
553911.7409043132
 20
238709.5491336282
 10
553912.099117393
 20
238708.518317862
 10
553912.4730335799
 20
238707.1323096353
 10
553912.7817440985
 20
238706.1937949212
 10
553912.8351796449
 20
238706.0625343174
 10
553912.9554125075
 20
238705.9846664369
 10
553913.2025620013
 20
238705.973544117
 10
553913.5009210408
 20
238706.1114776471
 10
553913.9595924861
 20
238706.3094814832
 10
553914.2089679803
 20
238706.4006975446
 10
553914.3134169999
 20
238706.3749883849
 10
553914.6229406431
 20
238706.3144780288
 10
553915.0939646614
 20
238706.3525761071
 10
553915.5403123681
 20
238706.4758389783
 10
553915.7062935785
 20
238706.6147899782
 10
553916.0988078268
 20
238706.9823364326
 10
553916.2804921443
 20
238707.2333441649
 10
553916.3708008704
 20
238707.3889611823
 10
553916.7052026645
 20
238707.5673164405
 10
553917.0689807455
 20
238707.6982580663
 10
553917.726844637
 20
238707.8989953343
 10
553918.5621830523
 20
238708.1173252855
 10
553919.3178583296
 20
238708.3333828099
 10
553920.2166031589
 20
238708.6503724182
 10
553920.5742972229
 20
238708.7511764455
 10
553920.723335455
 20
238708.63204399
 10
553920.9067671254
 20
238708.6205887223
 10
553921.0420456756
 20
238708.6389171506
 10
553921.2002531845
 20
238708.5770587051
 10
553921.5214719807
 20
238708.5209488482
 10
553921.9892088998
 20
238708.6038319008
 10
553922.2426673173
 20
238708.7166430044
 10
553922.4699673451
 20
238708.9493851727
 10
553922.7200348603
 20
238709.2663398564
 10
553922.9376811968
 20
238709.4259755308
 10
553923.4652433216
 20
238709.5496039461
 10
553923.7399871486
 20
238709.6683149782
 10
553924.9614732199
 20
238710.0578359888
 10
553925.6928816314
 20
238710.3360662798
 10
553925.9936166093
 20
238710.4250983898
 10
553926.71516949
 20
238710.6871027133
 10
553926.9726012608
 20
238710.8138510592
 10
553927.4725459852
 20
238710.8660423765
 10
553927.8120629671
 20
238710.8175786778
 10
553928.1105373435
 20
238710.8585871391
 10
553928.4239363038
 20
238710.9816078664
 10
553928.7932966865
 20
238711.112083831
 10
553928.8679196057
 20
238711.3357595739
 10
553928.744797556
 20
238711.5221544743
 10
553928.2373905393
 20
238711.8502105231
 10
553927.5620877217
 20
238712.2677364035
 10
553927.2300387983
 20
238712.4727717251
 10
553927.0940624605
 20
238712.437919306
 10
553926.7291310113
 20
238712.3363003715
 10
553926.4240247682
 20
238712.3123909927
 10
553926.1129383111
 20
238712.3781446948
 10
553925.6104100419
 20
238712.8742858422
 10
553925.2035997953
 20
238713.2568522014
 10
553924.9403723496
 20
238713.3285849945
 10
553924.1447040318
 20
238713.2389195852
 10
553923.6900405406
 20
238713.2389195852
 10
553923.253317691
 20
238713.3883596057
 10
553920.3578849903
 20
238712.4844784499
 10
553920.1174134981
 20
238712.2081596984
 10
553920.2256282647
 20
238711.8537495489
 10
553920.7306189749
 20
238710.3760456297
 10
553917.878529849
 20
238709.4911424997
 10
553917.58250638
 20
238709.3040141829
 10
553917.1369660309
 20
238709.1032489753
 10
553916.3963191406
 20
238708.9212685441
 10
553916.226329976
 20
238708.9697974352
 10
553915.8195831648
 20
238710.4559624199
 10
553915.8195831648
 20
238710.6015467649
 10
553915.5585298178
 20
238710.9958361471
 10
553915.2671255885
 20
238710.9169787363
 10
553915.1699946898
 20
238711.2263431411
 10
553914.9608198423
 20
238711.4811553261
 10
553914.5947811597
 20
238711.542112717
 10
553914.4300628876
 20
238711.4994418448
 10
553912.9475984382
 20
238710.9508253271
 10
553912.325327488
 20
238712.4077048734
 10
553911.4541481573
 20
238713.2430313744
 10
553911.1605986629
 20
238713.6646667157
 10
553911.0505212068
 20
238714.0435264111
 10
553911.117791404
 20
238714.3368394713
 10
553911.4480353062
 20
238714.6118194467
 10
553911.7721605903
 20
238714.9417940201
 10
553911.9617454795
 20
238715.3206560438
 10
553912.047365764
 20
238715.7422913851
 10
553911.9354890536
 20
238716.1193838959
 10
553911.6835184811
 20
238716.5737901503
 10
553911.3393649593
 20
238716.8378387269
 10
553911.0505212068
 20
238716.9422283461
 10
553909.948725915
 20
238719.6273314484
 10
553909.7422903168
 20
238719.8237776475
 10
553909.6169538002
 20
238719.9718905333
 10
553909.3725666231
 20
238720.1000265499
 10
553909.077373579
 20
238720.1725579521
 10
553908.9418701222
 20
238720.2039877607
 10
553908.9438020138
 20
238721.8163213431
 10
553909.2214061936
 20
238721.9113674685
 10
553909.3313567793
 20
238721.9626367762
 10
553909.7833963578
 20
238722.3532707173
 10
553910.0399515687
 20
238722.514405821
 10
553910.3771502808
 20
238722.6267116821
 10
553910.958684268
 20
238722.6389189927
 10
553911.77723541
 20
238722.6657760075
 10
553912.0215822189
 20
238722.6975154809
 10
553912.0460163234
 20
238722.7536672472
 10
553911.9727140107
 20
238722.8830652059
 10
553911.8736166193
 20
238723.2298501518
 10
553911.9300912909
 20
238723.5635150909
 10
553912.1609033246
 20
238723.8432052301
 10
553912.408900544
 20
238724.0272136163
 10
553912.4334557519
 20
238724.1695127209
 10
553912.1895299221
 20
238724.8886986402
 10
553911.9319539802
 20
238725.3406648294
 10
553911.7194112979
 20
238725.6676452008
 10
553911.4479891714
 20
238726.0103439689
 10
553911.3246191472
 20
238726.1237557755
 10
553911.2510227258
 20
238726.1059977824
 10
553910.5197123507
 20
238726.0640021191
 10
553909.4101375906
 20
238725.9968095236
 10
553908.1408501761
 20
238725.7364396711
 10
553906.1738730682
 20
238725.0813124469
 10
553904.9298040482
 20
238724.6949556048
 10
553904.5515396632
 20
238724.5437740111
 10
553903.9715338887
 20
238724.3757936865
 10
553903.3810958993
 20
238724.1530958322
 10
553901.5227372366
 20
238723.5960415319
 10
553900.9398884093
 20
238723.3850341043
 10
553900.6104518652
 20
238723.1571487832
 10
553900.5090823387
 20
238722.9123809122
 10
553900.990567406
 20
238721.5703823339
 10
553901.4044766334
 20
238720.7094793867
 10
553901.573416233
 20
238720.6166358391
 10
553901.885961701
 20
238720.7685601625
 10
553902.1816103251
 20
238721.2158930219
 10
553902.375889423
 20
238721.6125852164
 10
553903.0263198568
 20
238721.8489106482
 10
553904.1497811693
 20
238722.1865197385
 10
553905.7040485528
 20
238722.7435763671
 10
553906.3544732196
 20
238722.8448600255
 10
553907.1400553329
 20
238723.0811854573
 10
553907.4863829538
 20
238723.1233883399
 10
553907.7060073167
 20
238723.0389849032
 10
553908.0016559411
 20
238722.3468841728
 10
553908.3142014089
 20
238721.3171766804
 10
553908.3817772487
 20
238720.5322324024
 10
553908.3343219163
 20
238720.2349495797
 10
553907.9619397089
 20
238720.0329620112
 10
553907.1160941097
 20
238719.7140352518
 10
553906.7649857779
 20
238719.4482614002
 10
553906.3755164215
 20
238719.2977876116
 10
553905.9835384893
 20
238719.173928694
 10
553905.4072926949
 20
238719.0634598667
 10
553904.6802843829
 20
238718.8592580788
 10
553904.322336578
 20
238718.7732946768
 10
553903.7138022422
 20
238718.6333913995
 10
553903.1645106614
 20
238718.5042495547
 10
553902.7659988987
 20
238718.2244453283
 10
553902.7390735192
 20
238718.0307348892
 10
553902.8175659886
 20
238717.7998367397
 10
553902.9104590163
 20
238717.6351503963
 10
553902.9104590163
 20
238717.6351503963
 10
553902.9104590163
 20
238717.6351503963
 10
553902.9544520673
 20
238717.4682009447
 10
553902.9573202168
 20
238717.4274412588
 10
553902.9667960671
 20
238717.3914633702
 10
553902.989538424
 20
238717.3460552443
 10
553903.0187742022
 20
238717.3000636248
 10
553903.0545087289
 20
238717.2553248348
 10
553903.0901106648
 20
238717.213552816
 10
553903.1275534888
 20
238717.1736119008
 10
553903.1686674338
 20
238717.1336605453
 10
553903.2123331695
 20
238717.097233354
 10
553903.255441904
 20
238717.0634916271
 10
553903.2946036803
 20
238717.0320212344
 10
553903.3331978004
 20
238716.9995636582
 10
553903.3827153135
 20
238716.9847321233
 10
553903.4342595814
 20
238716.98712816
 10
553903.491586368
 20
238716.9872476425
 10
553903.5429820621
 20
238716.9871014787
 10
553903.5598520837
 20
238716.9876975977
 10
553904.0423045586
 20
238716.9599421015
 10
553904.350905507
 20
238716.7518823098
 10
553904.6214856748
 20
238716.54640461
 10
553904.8208521786
 20
238716.4312519878
 10
553904.8728023564
 20
238716.4181044655
 10
553904.9221299876
 20
238716.4082359614
 10
553904.9715347808
 20
238716.4006438084
 10
553905.024796392
 20
238716.3993026024
 10
553905.0810855698
 20
238716.3999103079
 10
553905.1354271282
 20
238716.4035463651
 10
553905.1858734477
 20
238716.4132391253
 10
553905.2391737996
 20
238716.4264819201
 10
553905.2894659552
 20
238716.4450678038
 10
553905.3425349813
 20
238716.4649273711
 10
553905.3899924753
 20
238716.4872552206
 10
553905.4296594913
 20
238716.5216964765
 10
553905.4661639872
 20
238716.556928119
 10
553905.50097156
 20
238716.5958633411
 10
553905.5109997342
 20
238716.6497641144
 10
553905.499757939
 20
238716.7011919801
 10
553905.4896921436
 20
238716.7268279843
  0
LWPOLYLINE
  5
8A85B
330
A
100
AcDbEntity
  8
sectionmarker
  6
Continuous
100
AcDbPolyline
 90
        3
 70
   129
 43
0.0
 10
553902.6632331738
 20
238720.0824244054
 10
553902.6070330947
 20
238720.1949033877
 10
553902.5377234782
 20
238720.0899932004
  0
LWPOLYLINE
  5
8A85C
330
A
100
AcDbEntity
  8
sectionmarker
  6
Continuous
100
AcDbPolyline
 90
        3
 70
   129
 43
0.0
 10
553900.8140052418
 20
238719.2694741614
 10
553900.8702053209
 20
238719.1569951791
 10
553900.9395149373
 20
238719.2619053664
  0
LWPOLYLINE
  5
8A85D
330
A
100
AcDbEntity
  8
sectionmarker
  6
Continuous
100
AcDbPolyline
 90
        3
 70
   129
 43
0.0
 10
553901.7140290968
 20
238717.6269764936
 10
553901.826508079
 20
238717.6831765727
 10
553901.7215978918
 20
238717.7524861892
  0
LWPOLYLINE
  5
8A85E
330
A
100
AcDbEntity
  8
sectionmarker
  6
Continuous
100
AcDbPolyline
 90
        3
 70
   129
 43
0.0
 10
553900.9470837323
 20
238719.387415062
 10
553900.8346047503
 20
238719.331214983
 10
553900.9395149373
 20
238719.2619053664
  0
LWPOLYLINE
  5
8A85F
330
A
100
AcDbEntity
  8
sectionmarker
  6
Continuous
100
AcDbPolyline
 90
        3
 70
   129
 43
0.0
 10
553904.061429923
 20
238716.5098403064
 10
553903.9806404731
 20
238716.6061888152
 10
553903.9375949418
 20
238716.4880488448
  0
LWPOLYLINE
  5
8A860
330
A
100
AcDbEntity
  8
sectionmarker
  6
Continuous
100
AcDbPolyline
 90
        3
 70
   129
 43
0.0
 10
553902.3463088952
 20
238715.4262550949
 10
553902.4053805645
 20
238715.3152573102
 10
553902.471971631
 20
238715.421913769
  0
LWPOLYLINE
  5
8A861
330
A
100
AcDbEntity
  8
sectionmarker
  6
Continuous
100
AcDbPolyline
 90
        3
 70
   129
 43
0.0
 10
553906.6511831244
 20
238715.6529302295
 10
553906.5949830454
 20
238715.7654092118
 10
553906.5256734287
 20
238715.6604990245
  0
LWPOLYLINE
  5
8A862
330
A
100
AcDbEntity
  8
sectionmarker
  6
Continuous
100
AcDbPolyline
 90
        3
 70
   129
 43
0.0
 10
553904.8831853012
 20
238714.8846629164
 10
553904.933434703
 20
238714.7694024811
 10
553905.0081284671
 20
238714.8705499572
  0
LWPOLYLINE
  5
8A8BB
330
A
100
AcDbEntity
  8
basement projected
  6
Continuous
100
AcDbPolyline
 90
        6
 70
   128
 43
0.0
 10
553910.4534139232
 20
238726.7318232699
 10
553910.4534139232
 20
238726.7318232699
 10
553899.8079446737
 20
238723.3676160438
 10
553902.1345408285
 20
238716.151949918
 10
553904.0128554439
 20
238716.7236865188
 10
553907.3695514138
 20
238706.7719553195
  0
LWPOLYLINE
  5
8A8BC
330
A
100
AcDbEntity
  8
basement projected
  6
Continuous
100
AcDbPolyline
 90
        4
 70
   129
 43
0.0
 10
553902.4135677621
 20
238721.2695185759
 10
553907.2054511072
 20
238722.827213791
 10
553908.0104897419
 20
238720.3246871664
 10
553903.2441581833
 20
238718.7414550863
  0
LWPOLYLINE
  5
8A8BD
330
A
100
AcDbEntity
  8
basement projected
  6
Continuous
100
AcDbPolyline
 90
        4
 70
   129
 43
0.0
 10
553908.7816275753
 20
238718.2004102209
 10
553905.8153519763
 20
238717.289439372
 10
553906.5087655862
 20
238715.0440811785
 10
553909.5007236102
 20
238716.0448687766
  0
LWPOLYLINE
  5
8A8BE
330
A
100
AcDbEntity
  8
basement projected
  6
Continuous
100
AcDbPolyline
 90
        4
 70
   129
 43
0.0
 10
553909.8944693361
 20
238714.2851184721
 10
553907.021683704
 20
238713.375924121
 10
553907.6976332644
 20
238711.2068482313
 10
553910.7134032022
 20
238712.1939733272
  0
LWPOLYLINE
  5
8A8BF
330
A
100
AcDbEntity
  8
basement projected
  6
Continuous
100
AcDbPolyline
 90
        6
 70
   128
 43
0.0
 10
553909.0126922079
 20
238707.281037194
 10
553908.2959951787
 20
238709.4814660581
 10
553910.7848864477
 20
238710.2626827175
 10
553912.2052522429
 20
238705.4061172115
 10
553916.4272470216
 20
238706.6300240872
 10
553916.4272470216
 20
238706.6300240872
  0
ENDSEC
  0
SECTION
  2
OBJECTS
  0
DICTIONARY
  5
19
330
0
100
AcDbDictionary
281
     1
  3
ACAD_CIP_PREVIOUS_PRODUCT_INFO
350
8A0B3
  3
ACAD_COLOR
350
7509D
  3
ACAD_DETAILVIEWSTYLE
350
8A0B0
  3
ACAD_GROUP
350
1A
  3
ACAD_IMAGE_DICT
350
755DD
  3
ACAD_IMAGE_VARS
350
7A15A
  3
ACAD_LAYOUT
350
74CC9
  3
ACAD_MATERIAL
350
7509C
  3
ACAD_MLEADERSTYLE
350
8A0AC
  3
ACAD_MLINESTYLE
350
1B
  3
ACAD_PLOTSETTINGS
350
74CCA
  3
ACAD_PLOTSTYLENAME
350
74CC7
  3
ACAD_SCALELIST
350
8A09A
  3
ACAD_SECTIONVIEWSTYLE
350
8A0AE
  3
ACAD_TABLESTYLE
350
7A117
  3
ACAD_VISUALSTYLE
350
7A106
  3
ACDB_RECOMPOSE_DATA
350
8AAA3
  3
AcDbVariableDictionary
350
7506D
  3
ADE_QUERY_LIBRARY
350
755EF
  3
ASE_INDEX_DICTIONARY
350
8A08B
  3
Autodesk_MAP
350
7A11F
1001
ADE
1000
ADE02C004
1000
[Query]
1000
CaseSensitiveMatch=0
1000
SaveCurrQueryInSession=1
1000
MkSelSetWithQryObj=0
1000
ShowBlockAsInsPt=0
1000
CreateAssociativeHatchObjects=0
1000
ReferenceBoundaryForAreaLocation=1
1000
ShowImageAsBoundary=1
1000
DefaultJoinOperator=2
1000
ColorForAdd=red
1000
ColorForRemove=red
1000
BlockLocnForQuery=1
1000
TextLocnForQuery=1
1000
IncludeAllObjectsInGroups=0
1000
AlwaysUseLibraryDefinitions=0
1000
PreviewDefinitionsFrom=2
1000
[Save Back]
1000
RedefineBlockDefinitions=1
1000
RedefineLayerDefinitions=1
1000
RedefineTextStyleDefinitions=1
1000
RemoveUnusedGroups=1
1000
EraseSavedBackObjects=1
1000
RemoveLockAfterSave=1
1000
CreateHistoryFileOfChanges=0
1000
CreateBackupFileOfSourceDwg=1
1000
DontAddObjectsToSaveSet=0
1000
MarkObjectsForEditingWithoutPrompting=0
1000
FdoDontAddObjsToSvSet=0
1000
FdoEditWithoutPrompt=1
1000
FdoRemUnusedGrps=1
1000
FdoEraseSvdBkObjs=1
1000
FdoRemoveLockOnSave=1
1000
FdoTesselationMaxPointsDistance=0
1000
FdoTesselationMaxCurvesDistance=0
1000
[Coordinate Transformation]
1000
RestoreLastActiveDwgsOnStartup=1
1000
ActivateDwgsOnAttach=1
1000
AdjustSizesAndScalesForChangesInUnits=1
1000
AdjustRotationsForMapDistortions=1
1000
AdjustSizesAndScalesForMapDistortions=1
1000
AdjustElevations=1
1000
AdjustZeroRotationObjects=1
1000
ReconnectDbOnWSOpen=1
1000
NoOfSQLConditionsInHistory=10
  0
DICTIONARY
  5
7A13B
330
2
100
AcDbDictionary
280
     1
281
     1
  3
ACAD_LAYERFILTERS
360
8A8B8
  3
ACAD_LAYERSTATES
360
8A1A8
  3
ACLYDICTIONARY
360
8A8B7
  0
DICTIONARY
  5
8A0BC
330
14
100
AcDbDictionary
280
     1
281
     1
  3
ADSK_XREC_LAYER_RECONCILED
360
8A0BD
  0
DICTIONARY
  5
8A0DA
330
4BD1
100
AcDbDictionary
280
     1
281
     1
  3
ADSK_XREC_LAYER_RECONCILED
360
8A0DB
  0
DICTIONARY
  5
8A0FE
330
7A217
100
AcDbDictionary
280
     1
281
     1
  3
ADSK_XREC_LAYER_RECONCILED
360
8A0FF
  0
DICTIONARY
  5
8A100
330
7A220
100
AcDbDictionary
280
     1
281
     1
  3
ADSK_XREC_LAYER_RECONCILED
360
8A101
  0
DICTIONARY
  5
8A108
330
7A2DD
100
AcDbDictionary
280
     1
281
     1
  3
ADSK_XREC_LAYER_RECONCILED
360
8A109
  0
DICTIONARY
  5
8A110
330
7A353
100
AcDbDictionary
280
     1
281
     1
  3
ADSK_XREC_LAYER_RECONCILED
360
8A111
  0
DICTIONARY
  5
8A112
330
7A38B
100
AcDbDictionary
280
     1
281
     1
  3
ADSK_XREC_LAYER_RECONCILED
360
8A113
  0
DICTIONARY
  5
8A14C
330
89F00
100
AcDbDictionary
280
     1
281
     1
  3
ADSK_XREC_LAYER_RECONCILED
360
8A14D
  0
DICTIONARY
  5
7A142
330
A
100
AcDbDictionary
280
     1
281
     1
  3
ACAD_SORTENTS
360
7A143
  0
XRECORD
  5
8A0B3
102
{ACAD_REACTORS
330
19
102
}
330
19
100
AcDbXrecord
280
     1
300
MAP
300
2018
300
MAP_F_S
  0
DICTIONARY
  5
7509D
102
{ACAD_REACTORS
330
19
102
}
330
19
100
AcDbDictionary
281
     1
  0
DICTIONARY
  5
8A0B0
102
{ACAD_REACTORS
330
19
102
}
330
19
100
AcDbDictionary
281
     1
  3
Imperial24
350
8A0B1
  0
DICTIONARY
  5
1A
102
{ACAD_REACTORS
330
19
102
}
330
19
100
AcDbDictionary
281
     1
  0
DICTIONARY
  5
755DD
102
{ACAD_REACTORS
330
19
102
}
330
19
100
AcDbDictionary
281
     1
  0
RASTERVARIABLES
  5
7A15A
102
{ACAD_REACTORS
330
19
102
}
330
19
100
AcDbRasterVariables
 90
        0
 70
     1
 71
     1
 72
     3
  0
DICTIONARY
  5
74CC9
102
{ACAD_REACTORS
330
19
102
}
330
19
100
AcDbDictionary
281
     1
  3
Layout1
350
74CCC
  3
Model
350
74CCB
  0
DICTIONARY
  5
7509C
102
{ACAD_REACTORS
330
19
102
}
330
19
100
AcDbDictionary
281
     1
  3
ByBlock
350
7A104
  3
ByLayer
350
7A103
  3
Global
350
7A105
  0
DICTIONARY
  5
8A0AC
102
{ACAD_REACTORS
330
19
102
}
330
19
100
AcDbDictionary
281
     1
  3
Standard
350
8A0AD
  0
DICTIONARY
  5
1B
102
{ACAD_REACTORS
330
19
102
}
330
19
100
AcDbDictionary
281
     1
  3
STANDARD
350
1C
  0
DICTIONARY
  5
74CCA
102
{ACAD_REACTORS
330
19
102
}
330
19
100
AcDbDictionary
281
     1
  0
ACDBDICTIONARYWDFLT
  5
74CC7
102
{ACAD_REACTORS
330
19
102
}
330
19
100
AcDbDictionary
281
     1
  3
Normal
350
74CC8
100
AcDbDictionaryWithDefault
340
74CC8
  0
DICTIONARY
  5
8A09A
102
{ACAD_REACTORS
330
19
102
}
330
19
100
AcDbDictionary
281
     1
  3
A0
350
8A09B
  3
A1
350
8A09C
  3
A2
350
8A09D
  3
A3
350
8A09E
  3
A4
350
8A09F
  3
A5
350
8A0A0
  3
A6
350
8A0A1
  3
A7
350
8A0A2
  3
A8
350
8A0A3
  3
A9
350
8A0A4
  3
B0
350
8A0A5
  3
B1
350
8A0A6
  3
B2
350
8A0A7
  3
B3
350
8A0A8
  3
B4
350
8A0A9
  3
B5
350
8A0AA
  3
B6
350
8A0AB
  0
DICTIONARY
  5
8A0AE
102
{ACAD_REACTORS
330
19
102
}
330
19
100
AcDbDictionary
281
     1
  3
Imperial24
350
8A0AF
  0
DICTIONARY
  5
7A117
102
{ACAD_REACTORS
330
19
102
}
330
19
100
AcDbDictionary
281
     1
  3
Legend
350
7A127
  3
Standard
350
7A118
  0
DICTIONARY
  5
7A106
102
{ACAD_REACTORS
330
19
102
}
330
19
100
AcDbDictionary
281
     1
  3
2dWireframe
350
7A10C
  3
3D Hidden
350
7A10E
  3
3dWireframe
350
7A10D
  3
Basic
350
7A10B
  3
Brighten
350
7A112
  3
ColorChange
350
7A116
  3
Conceptual
350
7A10F
  3
Dim
350
7A111
  3
EdgeColorOff
350
8A099
  3
Facepattern
350
7A115
  3
Flat
350
7A107
  3
FlatWithEdges
350
7A108
  3
Gouraud
350
7A109
  3
GouraudWithEdges
350
7A10A
  3
Hidden
350
8A091
  3
JitterOff
350
8A097
  3
Linepattern
350
7A114
  3
OverhangOff
350
8A098
  3
Realistic
350
7A110
  3
Shaded
350
8A096
  3
Shaded with edges
350
8A095
  3
Shades of Gray
350
8A092
  3
Sketchy
350
8A093
  3
Thicken
350
7A113
  3
Wireframe
350
8A090
  3
X-Ray
350
8A094
  0
XRECORD
  5
8AAA3
102
{ACAD_REACTORS
330
19
102
}
330
19
100
AcDbXrecord
280
     1
 90
        1
330
7A127
330
7A118
  0
DICTIONARY
  5
7506D
102
{ACAD_REACTORS
330
19
102
}
330
19
100
AcDbDictionary
281
     1
  3
CANNOSCALE
350
8A160
  3
CMLEADERSTYLE
350
8A15C
  3
CTABLESTYLE
350
7A137
  3
CVIEWDETAILSTYLE
350
8A15D
  3
CVIEWSECTIONSTYLE
350
8A15E
  3
DIMASSOC
350
7506E
  3
LAYEREVAL
350
8A162
  3
LAYERNOTIFY
350
8A163
  3
LIGHTINGUNITS
350
8A161
  3
MSLTSCALE
350
8A15F
  3
XCLIPFRAME
350
8AA9E
  0
DICTIONARY
  5
755EF
102
{ACAD_REACTORS
330
19
102
}
330
19
100
AcDbDictionary
281
     1
  3
_CurrQry
350
8AA53
  0
DICTIONARY
  5
8A08B
102
{ACAD_REACTORS
330
19
102
}
330
19
100
AcDbDictionary
281
     1
  3
ASEBlockHierarchyIndexRecord
350
8A08C
1001
DCO15
1040
2046399986.0
  0
DICTIONARY
  5
7A11F
102
{ACAD_REACTORS
330
19
102
}
330
19
100
AcDbDictionary
281
     1
  3
AcMapDMStylizedEntities
350
7A12E
  3
MAP_DISPLAY_CUSTOMOBJ_REG_TABLE
350
7A123
  3
MAP_DISPLAY_MANAGEMENT_DICTIONARY
350
7A120
  3
MAP_DISPLAY_STYLELIBRARY_DICTIONARY
350
7A121
  3
MAP_RESOURCE_VERSION_MANAGEMENT_DICTIONARY
350
8A0B9
1001
MapGWS
1000
C:\ProgramData\Autodesk\Autodesk AutoCAD Map 3D 2018\R22.0\MapCache\8019-arcive-planGWS.xml
  0
DICTIONARY
  5
8A8B8
102
{ACAD_REACTORS
330
7A13B
102
}
330
7A13B
100
AcDbDictionary
281
     1
  0
DICTIONARY
  5
8A1A8
102
{ACAD_REACTORS
330
7A13B
102
}
330
7A13B
100
AcDbDictionary
281
     1
  0
DICTIONARY
  5
8A8B7
102
{ACAD_REACTORS
330
7A13B
102
}
330
7A13B
100
AcDbDictionary
281
     1
  3
*A1
350
8A8B9
  3
*A2
350
8A8BA
1001
ACAD
1000
<All
  0
XRECORD
  5
8A0BD
102
{ACAD_REACTORS
330
8A0BC
102
}
330
8A0BC
100
AcDbXrecord
280
     1
290
     1
  0
XRECORD
  5
8A0DB
102
{ACAD_REACTORS
330
8A0DA
102
}
330
8A0DA
100
AcDbXrecord
280
     1
290
     1
  0
XRECORD
  5
8A0FF
102
{ACAD_REACTORS
330
8A0FE
102
}
330
8A0FE
100
AcDbXrecord
280
     1
290
     1
  0
XRECORD
  5
8A101
102
{ACAD_REACTORS
330
8A100
102
}
330
8A100
100
AcDbXrecord
280
     1
290
     1
  0
XRECORD
  5
8A109
102
{ACAD_REACTORS
330
8A108
102
}
330
8A108
100
AcDbXrecord
280
     1
290
     1
  0
XRECORD
  5
8A111
102
{ACAD_REACTORS
330
8A110
102
}
330
8A110
100
AcDbXrecord
280
     1
290
     1
  0
XRECORD
  5
8A113
102
{ACAD_REACTORS
330
8A112
102
}
330
8A112
100
AcDbXrecord
280
     1
290
     1
  0
XRECORD
  5
8A14D
102
{ACAD_REACTORS
330
8A14C
102
}
330
8A14C
100
AcDbXrecord
280
     1
290
     1
  0
SORTENTSTABLE
  5
7A143
102
{ACAD_REACTORS
330
7A142
102
}
330
7A142
100
AcDbSortentsTable
330
A
331
780A0
  5
780C8
331
78A63
  5
78A64
331
78A64
  5
78A6B
331
78A65
  5
78A6C
331
78A66
  5
78A6D
331
78A67
  5
78A6E
331
78A68
  5
78A6F
331
78A6B
  5
78A72
331
798F1
  5
7991B
331
798F2
  5
7991C
331
87E7A
  5
87E7D
331
88828
  5
8882B
331
88829
  5
8882C
331
8882A
  5
8882D
331
8882B
  5
8882E
331
8882C
  5
8882F
331
8882D
  5
88830
331
88830
  5
88833
331
89690
  5
89699
331
89691
  5
8969A
331
8A3E4
  5
8A5B4
331
8A3EF
  5
8A5B5
331
8A503
  5
8A5B7
331
8A5B4
  5
8A5B8
331
8A5B5
  5
8A5B9
331
8A5B8
  5
8A5BB
331
8A5B9
  5
8A5BC
331
8A5BA
  5
8A5BE
331
8A5BC
  5
8A5BF
331
8A5BD
  5
8A5C0
331
8A5BE
  5
8A5C1
331
8A5BF
  5
8A5C4
331
8A5C0
  5
8A5C5
331
8A5C1
  5
8A5C6
331
8A5C4
  5
8A5C7
331
8A5C5
  5
8A613
331
8A5C6
  5
8A614
331
8A5C7
  5
8A66A
331
8A6CE
  5
8A85B
331
8A765
  5
8A503
331
8A85B
  5
8A85C
331
8A85C
  5
8A85D
331
8A85D
  5
8A85E
331
8A85E
  5
8A85F
331
8A85F
  5
8A860
331
8A860
  5
8A861
331
8A861
  5
8A862
331
8A862
  5
8A8BB
331
8A8BB
  5
8A8BC
331
8A8BC
  5
8A8BD
331
8A8BD
  5
8A8BE
331
8A8BE
  5
8A8BF
331
8A8BF
  5
8A9BF
  0
ACDBDETAILVIEWSTYLE
  5
8A0B1
102
{ACAD_REACTORS
330
8A0B0
102
}
102
{ACAD_XDICTIONARY
360
8AA9C
102
}
330
8A0B0
100
AcDbModelDocViewStyle
 70
     0
  3
Imperial24
290
     0
300
Imperial24
 90
        0
100
AcDbDetailViewStyle
 70
     0
 71
     0
 90
        3
 71
     1
340
17
 62
   256
 40
0.24
340
0
 62
   256
 40
0.24
300

 40
0.36
280
     3
 71
     2
340
13
 90
       25
 62
   256
 71
     3
340
17
 62
   256
 40
0.24
 90
        1
 40
0.75
 90
        1
300
%<\AcVar ViewType \f "%tc1">% %<\AcVar ViewDetailId>%\PSCALE %<\AcVar ViewScale \f "%sn">%
 71
     4
340
13
 90
       25
 62
   256
340
13
 90
       25
 62
   256
280
     0
  0
LAYOUT
  5
74CCC
102
{ACAD_REACTORS
330
74CC9
102
}
330
74CC9
100
AcDbPlotSettings
  1

  2
QMS magicolor 2
  4

  6

 40
0.0
 41
0.0
 42
0.0
 43
0.0
 44
0.0
 45
0.0
 46
0.0
 47
0.0
 48
0.0
 49
0.0
140
0.0
141
0.0
142
1.0
143
1.0
 70
   688
 72
     0
 73
     0
 74
     5
  7

 75
    16
 76
     0
 77
     2
 78
   300
147
1.0
148
0.0
149
0.0
100
AcDbLayout
  1
Layout1
 70
     1
 71
     1
 10
0.0
 20
0.0
 11
12.0
 21
9.0
 12
0.0
 22
0.0
 32
0.0
 14
1.000000000000000E+20
 24
1.000000000000000E+20
 34
1.000000000000000E+20
 15
-1.000000000000000E+20
 25
-1.000000000000000E+20
 35
-1.000000000000000E+20
146
0.0
 13
0.0
 23
0.0
 33
0.0
 16
1.0
 26
0.0
 36
0.0
 17
0.0
 27
1.0
 37
0.0
 76
     0
330
B
  0
LAYOUT
  5
74CCB
102
{ACAD_REACTORS
330
74CC9
102
}
330
74CC9
100
AcDbPlotSettings
  1

  2
none_device
  4
Letter_(8.50_x_11.00_Inches)
  6

 40
6.349999904632567
 41
6.349999904632567
 42
6.350006103515625
 43
6.350006103515625
 44
215.8999938964844
 45
279.3999938964844
 46
0.0
 47
0.0
 48
0.0
 49
0.0
140
0.0
141
0.0
142
1.0
143
3.207438890466343
 70
 11952
 72
     0
 73
     1
 74
     0
  7

 75
     0
 76
     0
 77
     2
 78
   300
147
0.3117752306902424
148
-7410.075538929986
149
-5152.338123999713
100
AcDbLayout
  1
Model
 70
     1
 71
     0
 10
0.0
 20
0.0
 11
12.0
 21
9.0
 12
0.0
 22
0.0
 32
0.0
 14
553000.0
 24
238000.0
 34
0.0
 15
554014.9093129683
 25
239000.1659767539
 35
0.0
146
0.0
 13
0.0
 23
0.0
 33
0.0
 16
1.0
 26
0.0
 36
0.0
 17
0.0
 27
1.0
 37
0.0
 76
     0
330
A
331
76CAC
1001
ACAD_PSEXT
1000
None
1000
None
1000
Not applicable
1000
The layout will not be plotted unless a new plotter configuration name is selected.
1070
     0
  0
MATERIAL
  5
7A104
102
{ACAD_REACTORS
330
7509C
102
}
330
7509C
100
AcDbMaterial
  1
ByBlock
 72
     1
 94
      127
  0
MATERIAL
  5
7A103
102
{ACAD_REACTORS
330
7509C
102
}
330
7509C
100
AcDbMaterial
  1
ByLayer
 72
     1
 94
      127
  0
MATERIAL
  5
7A105
102
{ACAD_REACTORS
330
7509C
102
}
330
7509C
100
AcDbMaterial
  1
Global
 72
     1
 94
      127
  0
MLEADERSTYLE
  5
8A0AD
102
{ACAD_REACTORS
330
8A0AC
102
}
330
8A0AC
100
AcDbMLeaderStyle
179
     2
170
     2
171
     1
172
     0
 90
        2
 40
0.0
 41
0.0
173
     1
 91
-1056964608
340
11
 92
       -2
290
     1
 42
0.09
291
     1
 43
0.36
  3
Standard
341
0
 44
0.18
300

342
17
174
     1
178
     6
175
     1
176
     0
 93
-1056964608
 45
0.18
292
     0
297
     0
 46
0.18
343
0
 94
-1056964608
 47
1.0
 49
1.0
140
1.0
293
     1
141
0.0
294
     1
177
     0
142
1.0
295
     0
296
     0
143
0.125
271
     0
272
     9
273
     9
298
     0
  0
MLINESTYLE
  5
1C
102
{ACAD_REACTORS
330
1B
102
}
330
1B
100
AcDbMlineStyle
  2
STANDARD
 70
     0
  3

 62
     0
 51
90.0
 52
90.0
 71
     2
 49
0.5
 62
   256
  6
BYLAYER
 49
-0.5
 62
   256
  6
BYLAYER
  0
ACDBPLACEHOLDER
  5
74CC8
102
{ACAD_REACTORS
330
74CC7
102
}
330
74CC7
  0
SCALE
  5
8A09B
102
{ACAD_REACTORS
330
8A09A
102
}
330
8A09A
100
AcDbScale
 70
     0
300
1:1
140
1.0
141
1.0
290
     1
  0
SCALE
  5
8A09C
102
{ACAD_REACTORS
330
8A09A
102
}
330
8A09A
100
AcDbScale
 70
     0
300
1/128" = 1'-0"
140
0.0078125
141
12.0
290
     0
  0
SCALE
  5
8A09D
102
{ACAD_REACTORS
330
8A09A
102
}
330
8A09A
100
AcDbScale
 70
     0
300
1/64" = 1'-0"
140
0.015625
141
12.0
290
     0
  0
SCALE
  5
8A09E
102
{ACAD_REACTORS
330
8A09A
102
}
330
8A09A
100
AcDbScale
 70
     0
300
1/32" = 1'-0"
140
0.03125
141
12.0
290
     0
  0
SCALE
  5
8A09F
102
{ACAD_REACTORS
330
8A09A
102
}
330
8A09A
100
AcDbScale
 70
     0
300
1/16" = 1'-0"
140
0.0625
141
12.0
290
     0
  0
SCALE
  5
8A0A0
102
{ACAD_REACTORS
330
8A09A
102
}
330
8A09A
100
AcDbScale
 70
     0
300
3/32" = 1'-0"
140
0.09375
141
12.0
290
     0
  0
SCALE
  5
8A0A1
102
{ACAD_REACTORS
330
8A09A
102
}
330
8A09A
100
AcDbScale
 70
     0
300
1/8" = 1'-0"
140
0.125
141
12.0
290
     0
  0
SCALE
  5
8A0A2
102
{ACAD_REACTORS
330
8A09A
102
}
330
8A09A
100
AcDbScale
 70
     0
300
3/16" = 1'-0"
140
0.1875
141
12.0
290
     0
  0
SCALE
  5
8A0A3
102
{ACAD_REACTORS
330
8A09A
102
}
330
8A09A
100
AcDbScale
 70
     0
300
1/4" = 1'-0"
140
0.25
141
12.0
290
     0
  0
SCALE
  5
8A0A4
102
{ACAD_REACTORS
330
8A09A
102
}
330
8A09A
100
AcDbScale
 70
     0
300
3/8" = 1'-0"
140
0.375
141
12.0
290
     0
  0
SCALE
  5
8A0A5
102
{ACAD_REACTORS
330
8A09A
102
}
330
8A09A
100
AcDbScale
 70
     0
300
1/2" = 1'-0"
140
0.5
141
12.0
290
     0
  0
SCALE
  5
8A0A6
102
{ACAD_REACTORS
330
8A09A
102
}
330
8A09A
100
AcDbScale
 70
     0
300
3/4" = 1'-0"
140
0.75
141
12.0
290
     0
  0
SCALE
  5
8A0A7
102
{ACAD_REACTORS
330
8A09A
102
}
330
8A09A
100
AcDbScale
 70
     0
300
1" = 1'-0"
140
1.0
141
12.0
290
     0
  0
SCALE
  5
8A0A8
102
{ACAD_REACTORS
330
8A09A
102
}
330
8A09A
100
AcDbScale
 70
     0
300
1-1/2" = 1'-0"
140
1.5
141
12.0
290
     0
  0
SCALE
  5
8A0A9
102
{ACAD_REACTORS
330
8A09A
102
}
330
8A09A
100
AcDbScale
 70
     0
300
3" = 1'-0"
140
3.0
141
12.0
290
     0
  0
SCALE
  5
8A0AA
102
{ACAD_REACTORS
330
8A09A
102
}
330
8A09A
100
AcDbScale
 70
     0
300
6" = 1'-0"
140
6.0
141
12.0
290
     0
  0
SCALE
  5
8A0AB
102
{ACAD_REACTORS
330
8A09A
102
}
330
8A09A
100
AcDbScale
 70
     0
300
1'-0" = 1'-0"
140
12.0
141
12.0
290
     0
  0
ACDBSECTIONVIEWSTYLE
  5
8A0AF
102
{ACAD_REACTORS
330
8A0AE
102
}
102
{ACAD_XDICTIONARY
360
8AA9A
102
}
330
8A0AE
100
AcDbModelDocViewStyle
 70
     0
  3
Imperial24
290
     0
300
Imperial24
 90
        0
100
AcDbSectionViewStyle
 70
     0
 71
     0
 90
       78
 71
     1
340
17
 62
   256
 40
0.24
340
0
340
0
 62
   256
 40
0.24
300
I, O, Q, S, X, Z
 40
0.48
 90
        3
 40
0.18
 90
        1
 71
     2
340
13
 90
       25
 62
   256
340
13
 90
       50
 62
   256
 40
0.24
 40
0.0
 40
0.24
 71
     3
340
17
 62
   256
 40
0.24
 90
        1
 40
0.75
 90
        1
300
%<\AcVar ViewType \f "%tc1">% %<\AcVar ViewSectionStartId>%-%<\AcVar ViewSectionEndId>%\PSCALE %<\AcVar ViewScale \f "%sn">%
 71
     4
 62
   256
 62
   257
300
ANSI31
 40
1.0
 90
        0
290
     0
290
     0
 90
        6
 40
0.0
 40
1.570796326794896
 40
0.2617993877991494
 40
1.308996938995747
 40
-0.2617993877991494
 40
1.832595714594044
  0
TABLESTYLE
  5
7A127
102
{ACAD_REACTORS
330
7A117
102
}
102
{ACAD_XDICTIONARY
360
8AA9F
102
}
330
7A117
100
AcDbTableStyle
  3

 70
     0
 71
     0
 40
0.06
 41
0.06
280
     0
281
     0
  7
STANDARD
140
0.4
170
     4
 62
     0
 63
   257
283
     0
 90
      512
 91
        0
  1

274
    -2
284
     0
 64
     0
275
    -2
285
     0
 65
     0
276
    -2
286
     1
 66
     0
277
    -2
287
     1
 67
     0
278
    -2
288
     0
 68
     0
279
    -2
289
     1
 69
     0
  7
STANDARD
140
0.5
170
     5
 62
     0
 63
   257
283
     0
 90
      512
 91
        0
  1

274
    -2
284
     1
 64
     0
275
    -2
285
     0
 65
     0
276
    -2
286
     1
 66
     0
277
    -2
287
     1
 67
     0
278
    -2
288
     0
 68
     0
279
    -2
289
     1
 69
     0
  7
STANDARD
140
0.4
170
     4
 62
     0
 63
   257
283
     0
 90
      512
 91
        0
  1

274
    -2
284
     1
 64
     0
275
    -2
285
     0
 65
     0
276
    -2
286
     1
 66
     0
277
    -2
287
     1
 67
     0
278
    -2
288
     0
 68
     0
279
    -2
289
     1
 69
     0
  0
TABLESTYLE
  5
7A118
102
{ACAD_REACTORS
330
7A117
102
}
102
{ACAD_XDICTIONARY
360
8AAA1
102
}
330
7A117
100
AcDbTableStyle
  3
Standard
 70
     0
 71
     0
 40
0.06
 41
0.06
280
     0
281
     0
  7
STANDARD
140
0.18
170
     2
 62
     0
 63
   257
283
     0
 90
      512
 91
        0
  1

274
    -2
284
     1
 64
     0
275
    -2
285
     1
 65
     0
276
    -2
286
     1
 66
     0
277
    -2
287
     1
 67
     0
278
    -2
288
     1
 68
     0
279
    -2
289
     1
 69
     0
  7
STANDARD
140
0.25
170
     5
 62
     0
 63
   257
283
     0
 90
      512
 91
        0
  1

274
    -2
284
     1
 64
     0
275
    -2
285
     1
 65
     0
276
    -2
286
     1
 66
     0
277
    -2
287
     1
 67
     0
278
    -2
288
     1
 68
     0
279
    -2
289
     1
 69
     0
  7
STANDARD
140
0.18
170
     5
 62
     0
 63
   257
283
     0
 90
      512
 91
        0
  1

274
    -2
284
     1
 64
     0
275
    -2
285
     1
 65
     0
276
    -2
286
     1
 66
     0
277
    -2
287
     1
 67
     0
278
    -2
288
     1
 68
     0
279
    -2
289
     1
 69
     0
  0
VISUALSTYLE
  5
7A10C
102
{ACAD_REACTORS
330
7A106
102
}
330
7A106
100
AcDbVisualStyle
  2

 70
     4
177
     3
291
     0
 70
    58
 90
        0
176
     1
 90
        2
176
     1
 90
        0
176
     1
 90
        0
176
     1
 40
0.6
176
     1
 40
30.0
176
     1
 62
     7
420
 16777215
176
     1
 90
        1
176
     1
 90
        4
176
     1
 62
     7
176
     1
 62
   257
176
     1
 90
        1
176
     1
 90
        1
176
     1
 40
1.0
176
     1
 90
        0
176
     1
 62
   257
176
     1
 40
1.0
176
     1
 90
        1
176
     1
 90
        6
176
     1
 90
        2
176
     1
 62
     7
176
     1
 90
        5
176
     1
 90
        0
176
     1
 90
        0
176
     1
290
     0
176
     1
 90
        1
176
     1
 40
0.0
176
     1
 90
        0
176
     1
290
     1
176
     1
290
     1
176
     1
290
     0
176
     1
290
     0
176
     1
290
     0
176
     1
290
     0
176
     1
290
     0
176
     1
290
     0
176
     1
290
     0
176
     1
 90
       50
176
     1
 40
0.0
176
     1
 40
1.0
176
     1
 90
        0
176
     1
 62
    18
420
        0
176
     1
 90
       50
176
     1
 90
        3
176
     1
 62
     5
420
      255
176
     1
290
     0
176
     1
 90
       50
176
     1
 90
       50
176
     1
 90
       50
176
     1
290
     0
176
     1
 90
       50
176
     1
 62
   256
176
     0
 40
1.0
176
     0
 90
        2
176
     1
  1
strokes_ogs.tif
176
     1
290
     0
176
     1
 40
1.0
176
     1
 40
1.0
176
     1
  0
VISUALSTYLE
  5
7A10E
102
{ACAD_REACTORS
330
7A106
102
}
330
7A106
100
AcDbVisualStyle
  2

 70
     6
177
     3
291
     0
 70
    58
 90
        1
176
     1
 90
        2
176
     1
 90
        2
176
     1
 90
        0
176
     1
 40
0.6
176
     1
 40
30.0
176
     1
 62
     7
420
 16777215
176
     1
 90
        2
176
     1
 90
        2
176
     1
 62
     7
176
     1
 62
   257
176
     1
 90
        2
176
     1
 90
        1
176
     1
 40
40.0
176
     1
 90
        0
176
     1
 62
   257
176
     1
 40
1.0
176
     1
 90
        1
176
     1
 90
        6
176
     1
 90
        2
176
     1
 62
     7
176
     1
 90
        3
176
     1
 90
        0
176
     1
 90
        0
176
     1
290
     0
176
     1
 90
        1
176
     1
 40
0.0
176
     1
 90
        0
176
     1
290
     0
176
     1
290
     1
176
     1
290
     1
176
     1
290
     0
176
     1
290
     0
176
     1
290
     0
176
     1
290
     0
176
     1
290
     0
176
     1
290
     0
176
     1
 90
       50
176
     1
 40
0.0
176
     1
 40
1.0
176
     1
 90
        0
176
     1
 62
    18
420
        0
176
     1
 90
       50
176
     1
 90
        3
176
     1
 62
     5
420
      255
176
     1
290
     0
176
     1
 90
       50
176
     1
 90
       50
176
     1
 90
       50
176
     1
290
     0
176
     1
 90
       50
176
     1
 62
   256
176
     0
 40
1.0
176
     0
 90
        2
176
     1
  1
strokes_ogs.tif
176
     1
290
     0
176
     1
 40
1.0
176
     1
 40
1.0
176
     1
  0
VISUALSTYLE
  5
7A10D
102
{ACAD_REACTORS
330
7A106
102
}
330
7A106
100
AcDbVisualStyle
  2

 70
     5
177
     3
291
     0
 70
    58
 90
        0
176
     1
 90
        2
176
     1
 90
        0
176
     1
 90
        0
176
     1
 40
0.6
176
     1
 40
30.0
176
     1
 62
     7
420
 16777215
176
     1
 90
        1
176
     1
 90
        4
176
     1
 62
     7
176
     1
 62
   257
176
     1
 90
        1
176
     1
 90
        1
176
     1
 40
1.0
176
     1
 90
        0
176
     1
 62
   257
176
     1
 40
1.0
176
     1
 90
        1
176
     1
 90
        6
176
     1
 90
        2
176
     1
 62
     7
176
     1
 90
        5
176
     1
 90
        0
176
     1
 90
        0
176
     1
290
     0
176
     1
 90
        1
176
     1
 40
0.0
176
     1
 90
        0
176
     1
290
     0
176
     1
290
     1
176
     1
290
     1
176
     1
290
     0
176
     1
290
     0
176
     1
290
     0
176
     1
290
     0
176
     1
290
     0
176
     1
290
     0
176
     1
 90
       50
176
     1
 40
0.0
176
     1
 40
1.0
176
     1
 90
        0
176
     1
 62
    18
420
        0
176
     1
 90
       50
176
     1
 90
        3
176
     1
 62
     5
420
      255
176
     1
290
     0
176
     1
 90
       50
176
     1
 90
       50
176
     1
 90
       50
176
     1
290
     0
176
     1
 90
       50
176
     1
 62
   256
176
     0
 40
1.0
176
     0
 90
        2
176
     1
  1
strokes_ogs.tif
176
     1
290
     0
176
     1
 40
1.0
176
     1
 40
1.0
176
     1
  0
VISUALSTYLE
  5
7A10B
102
{ACAD_REACTORS
330
7A106
102
}
330
7A106
100
AcDbVisualStyle
  2

 70
     7
177
     3
291
     1
 70
    58
 90
        1
176
     1
 90
        0
176
     1
 90
        1
176
     1
 90
        0
176
     1
 40
0.6
176
     1
 40
30.0
176
     1
 62
     7
420
 16777215
176
     1
 90
        0
176
     1
 90
        4
176
     1
 62
     7
176
     1
 62
   257
176
     1
 90
        1
176
     1
 90
        1
176
     1
 40
1.0
176
     1
 90
        8
176
     1
 62
     7
176
     1
 40
1.0
176
     1
 90
        1
176
     1
 90
        6
176
     1
 90
        2
176
     1
 62
     7
176
     1
 90
        5
176
     1
 90
        0
176
     1
 90
        0
176
     1
290
     0
176
     1
 90
        1
176
     1
 40
0.0
176
     1
 90
        0
176
     1
290
     0
176
     1
290
     1
176
     1
290
     1
176
     1
290
     0
176
     1
290
     0
176
     1
290
     0
176
     1
290
     0
176
     1
290
     0
176
     1
290
     0
176
     1
 90
       50
176
     1
 40
0.0
176
     1
 40
1.0
176
     1
 90
        0
176
     1
 62
    18
420
        0
176
     1
 90
       50
176
     1
 90
        3
176
     1
 62
     5
420
      255
176
     1
290
     0
176
     1
 90
       50
176
     1
 90
       50
176
     1
 90
       50
176
     1
290
     0
176
     1
 90
       50
176
     1
 62
   256
176
     0
 40
1.0
176
     0
 90
        2
176
     1
  1
strokes_ogs.tif
176
     1
290
     0
176
     1
 40
1.0
176
     1
 40
1.0
176
     1
  0
VISUALSTYLE
  5
7A112
102
{ACAD_REACTORS
330
7A106
102
}
330
7A106
100
AcDbVisualStyle
  2

 70
    12
177
     3
291
     1
 70
    58
 90
        2
176
     1
 90
        2
176
     1
 90
        0
176
     1
 90
        0
176
     1
 40
0.6
176
     1
 40
30.0
176
     1
 62
     7
420
 16777215
176
     1
 90
        1
176
     1
 90
        4
176
     1
 62
     7
176
     1
 62
   257
176
     1
 90
        1
176
     1
 90
        1
176
     1
 40
1.0
176
     1
 90
        8
176
     1
 62
     7
176
     1
 40
1.0
176
     1
 90
        1
176
     1
 90
        6
176
     1
 90
        2
176
     1
 62
     7
176
     1
 90
        5
176
     1
 90
        0
176
     1
 90
        0
176
     1
290
     0
176
     1
 90
        1
176
     1
 40
50.0
176
     1
 90
        0
176
     1
290
     0
176
     1
290
     1
176
     1
290
     1
176
     1
290
     0
176
     1
290
     0
176
     1
290
     0
176
     1
290
     0
176
     1
290
     0
176
     1
290
     0
176
     1
 90
       50
176
     1
 40
0.0
176
     1
 40
1.0
176
     1
 90
        0
176
     1
 62
    18
420
        0
176
     1
 90
       50
176
     1
 90
        3
176
     1
 62
     5
420
      255
176
     1
290
     0
176
     1
 90
       50
176
     1
 90
       50
176
     1
 90
       50
176
     1
290
     0
176
     1
 90
       50
176
     1
 62
   256
176
     0
 40
1.0
176
     0
 90
        2
176
     1
  1
strokes_ogs.tif
176
     1
290
     0
176
     1
 40
1.0
176
     1
 40
1.0
176
     1
  0
VISUALSTYLE
  5
7A116
102
{ACAD_REACTORS
330
7A106
102
}
330
7A106
100
AcDbVisualStyle
  2

 70
    16
177
     3
291
     1
 70
    58
 90
        2
176
     1
 90
        2
176
     1
 90
        3
176
     1
 90
        0
176
     1
 40
0.6
176
     1
 40
30.0
176
     1
 62
     8
420
  8421504
176
     1
 90
        1
176
     1
 90
        4
176
     1
 62
     7
176
     1
 62
   257
176
     1
 90
        1
176
     1
 90
        1
176
     1
 40
1.0
176
     1
 90
        8
176
     1
 62
     8
420
  8421504
176
     1
 40
1.0
176
     1
 90
        1
176
     1
 90
        6
176
     1
 90
        2
176
     1
 62
     7
176
     1
 90
        5
176
     1
 90
        0
176
     1
 90
        0
176
     1
290
     0
176
     1
 90
        1
176
     1
 40
0.0
176
     1
 90
        0
176
     1
290
     0
176
     1
290
     1
176
     1
290
     1
176
     1
290
     0
176
     1
290
     0
176
     1
290
     0
176
     1
290
     0
176
     1
290
     0
176
     1
290
     0
176
     1
 90
       50
176
     1
 40
0.0
176
     1
 40
1.0
176
     1
 90
        0
176
     1
 62
    18
420
        0
176
     1
 90
       50
176
     1
 90
        3
176
     1
 62
     5
420
      255
176
     1
290
     0
176
     1
 90
       50
176
     1
 90
       50
176
     1
 90
       50
176
     1
290
     0
176
     1
 90
       50
176
     1
 62
   256
176
     0
 40
1.0
176
     0
 90
        2
176
     1
  1
strokes_ogs.tif
176
     1
290
     0
176
     1
 40
1.0
176
     1
 40
1.0
176
     1
  0
VISUALSTYLE
  5
7A10F
102
{ACAD_REACTORS
330
7A106
102
}
330
7A106
100
AcDbVisualStyle
  2

 70
     9
177
     3
291
     0
 70
    58
 90
        3
176
     1
 90
        2
176
     1
 90
        0
176
     1
 90
        0
176
     1
 40
0.6
176
     1
 40
30.0
176
     1
 62
     7
420
 16777215
176
     1
 90
        2
176
     1
 90
        2
176
     1
 62
     7
176
     1
 62
   257
176
     1
 90
        1
176
     1
 90
        1
176
     1
 40
40.0
176
     1
 90
        8
176
     1
 62
     7
176
     1
 40
1.0
176
     1
 90
        1
176
     1
 90
        6
176
     1
 90
        2
176
     1
 62
     7
176
     1
 90
        3
176
     1
 90
        0
176
     1
 90
        0
176
     1
290
     0
176
     1
 90
        1
176
     1
 40
0.0
176
     1
 90
        0
176
     1
290
     0
176
     1
290
     1
176
     1
290
     1
176
     1
290
     0
176
     1
290
     0
176
     1
290
     0
176
     1
290
     0
176
     1
290
     0
176
     1
290
     0
176
     1
 90
       50
176
     1
 40
0.0
176
     1
 40
1.0
176
     1
 90
        0
176
     1
 62
    18
420
        0
176
     1
 90
       50
176
     1
 90
        3
176
     1
 62
     5
420
      255
176
     1
290
     0
176
     1
 90
       50
176
     1
 90
       50
176
     1
 90
       50
176
     1
290
     0
176
     1
 90
       50
176
     1
 62
   256
176
     0
 40
1.0
176
     0
 90
        2
176
     1
  1
strokes_ogs.tif
176
     1
290
     0
176
     1
 40
1.0
176
     1
 40
1.0
176
     1
  0
VISUALSTYLE
  5
7A111
102
{ACAD_REACTORS
330
7A106
102
}
330
7A106
100
AcDbVisualStyle
  2

 70
    11
177
     3
291
     1
 70
    58
 90
        2
176
     1
 90
        2
176
     1
 90
        0
176
     1
 90
        0
176
     1
 40
0.6
176
     1
 40
30.0
176
     1
 62
     7
420
 16777215
176
     1
 90
        1
176
     1
 90
        4
176
     1
 62
     7
176
     1
 62
   257
176
     1
 90
        1
176
     1
 90
        1
176
     1
 40
1.0
176
     1
 90
        8
176
     1
 62
     7
176
     1
 40
1.0
176
     1
 90
        1
176
     1
 90
        6
176
     1
 90
        2
176
     1
 62
     7
176
     1
 90
        5
176
     1
 90
        0
176
     1
 90
        0
176
     1
290
     0
176
     1
 90
        1
176
     1
 40
-50.0
176
     1
 90
        0
176
     1
290
     0
176
     1
290
     1
176
     1
290
     1
176
     1
290
     0
176
     1
290
     0
176
     1
290
     0
176
     1
290
     0
176
     1
290
     0
176
     1
290
     0
176
     1
 90
       50
176
     1
 40
0.0
176
     1
 40
1.0
176
     1
 90
        0
176
     1
 62
    18
420
        0
176
     1
 90
       50
176
     1
 90
        3
176
     1
 62
     5
420
      255
176
     1
290
     0
176
     1
 90
       50
176
     1
 90
       50
176
     1
 90
       50
176
     1
290
     0
176
     1
 90
       50
176
     1
 62
   256
176
     0
 40
1.0
176
     0
 90
        2
176
     1
  1
strokes_ogs.tif
176
     1
290
     0
176
     1
 40
1.0
176
     1
 40
1.0
176
     1
  0
VISUALSTYLE
  5
8A099
102
{ACAD_REACTORS
330
7A106
102
}
330
7A106
100
AcDbVisualStyle
  2
EdgeColorOff
 70
    22
177
     3
291
     1
 70
    58
 90
        2
176
     0
 90
        2
176
     0
 90
        0
176
     0
 90
        0
176
     0
 40
0.6
176
     0
 40
30.0
176
     0
 62
     7
420
 16777215
176
     0
 90
        1
176
     0
 90
        4
176
     0
 62
     7
176
     0
 62
   257
176
     0
 90
        1
176
     0
 90
        1
176
     0
 40
1.0
176
     0
 90
        8
176
     2
 62
     7
176
     0
 40
1.0
176
     0
 90
        1
176
     0
 90
        6
176
     0
 90
        2
176
     0
 62
     7
176
     0
 90
        5
176
     0
 90
        0
176
     0
 90
        0
176
     0
290
     0
176
     0
 90
        1
176
     0
 40
0.0
176
     0
 90
        0
176
     0
290
     0
176
     1
290
     1
176
     1
290
     1
176
     1
290
     0
176
     1
290
     0
176
     1
290
     0
176
     1
290
     0
176
     1
290
     0
176
     1
290
     0
176
     1
 90
       50
176
     0
 40
0.0
176
     0
 40
1.0
176
     0
 90
        0
176
     0
 62
    18
420
        0
176
     0
 90
       50
176
     0
 90
        3
176
     0
 62
     5
420
      255
176
     0
290
     0
176
     1
 90
       50
176
     0
 90
       50
176
     0
 90
       50
176
     0
290
     0
176
     1
 90
       50
176
     0
 62
   256
176
     0
 40
1.0
176
     0
 90
        2
176
     0
  1
strokes_ogs.tif
176
     0
290
     0
176
     1
 40
1.0
176
     0
 40
1.0
176
     0
  0
VISUALSTYLE
  5
7A115
102
{ACAD_REACTORS
330
7A106
102
}
330
7A106
100
AcDbVisualStyle
  2

 70
    15
177
     3
291
     1
 70
    58
 90
        2
176
     1
 90
        2
176
     1
 90
        0
176
     1
 90
        0
176
     1
 40
0.6
176
     1
 40
30.0
176
     1
 62
     7
420
 16777215
176
     1
 90
        1
176
     1
 90
        4
176
     1
 62
     7
176
     1
 62
   257
176
     1
 90
        1
176
     1
 90
        1
176
     1
 40
1.0
176
     1
 90
        8
176
     1
 62
     7
176
     1
 40
1.0
176
     1
 90
        1
176
     1
 90
        6
176
     1
 90
        2
176
     1
 62
     7
176
     1
 90
        5
176
     1
 90
        0
176
     1
 90
        0
176
     1
290
     0
176
     1
 90
        1
176
     1
 40
0.0
176
     1
 90
        0
176
     1
290
     0
176
     1
290
     1
176
     1
290
     1
176
     1
290
     0
176
     1
290
     0
176
     1
290
     0
176
     1
290
     0
176
     1
290
     0
176
     1
290
     0
176
     1
 90
       50
176
     1
 40
0.0
176
     1
 40
1.0
176
     1
 90
        0
176
     1
 62
    18
420
        0
176
     1
 90
       50
176
     1
 90
        3
176
     1
 62
     5
420
      255
176
     1
290
     0
176
     1
 90
       50
176
     1
 90
       50
176
     1
 90
       50
176
     1
290
     0
176
     1
 90
       50
176
     1
 62
   256
176
     0
 40
1.0
176
     0
 90
        2
176
     1
  1
strokes_ogs.tif
176
     1
290
     0
176
     1
 40
1.0
176
     1
 40
1.0
176
     1
  0
VISUALSTYLE
  5
7A107
102
{ACAD_REACTORS
330
7A106
102
}
330
7A106
100
AcDbVisualStyle
  2

 70
     0
177
     3
291
     1
 70
    58
 90
        2
176
     1
 90
        1
176
     1
 90
        1
176
     1
 90
        2
176
     1
 40
0.6
176
     1
 40
30.0
176
     1
 62
     7
420
 16777215
176
     1
 90
        0
176
     1
 90
        4
176
     1
 62
     7
176
     1
 62
   257
176
     1
 90
        1
176
     1
 90
        1
176
     1
 40
1.0
176
     1
 90
        8
176
     1
 62
     7
176
     1
 40
1.0
176
     1
 90
        1
176
     1
 90
        6
176
     1
 90
        2
176
     1
 62
     7
176
     1
 90
        5
176
     1
 90
        0
176
     1
 90
        0
176
     1
290
     0
176
     1
 90
       13
176
     1
 40
0.0
176
     1
 90
        0
176
     1
290
     0
176
     1
290
     1
176
     1
290
     1
176
     1
290
     0
176
     1
290
     0
176
     1
290
     0
176
     1
290
     0
176
     1
290
     0
176
     1
290
     0
176
     1
 90
       50
176
     1
 40
0.0
176
     1
 40
1.0
176
     1
 90
        0
176
     1
 62
    18
420
        0
176
     1
 90
       50
176
     1
 90
        3
176
     1
 62
     5
420
      255
176
     1
290
     0
176
     1
 90
       50
176
     1
 90
       50
176
     1
 90
       50
176
     1
290
     0
176
     1
 90
       50
176
     1
 62
   256
176
     0
 40
1.0
176
     0
 90
        2
176
     1
  1
strokes_ogs.tif
176
     1
290
     0
176
     1
 40
1.0
176
     1
 40
1.0
176
     1
  0
VISUALSTYLE
  5
7A108
102
{ACAD_REACTORS
330
7A106
102
}
330
7A106
100
AcDbVisualStyle
  2

 70
     1
177
     3
291
     1
 70
    58
 90
        2
176
     1
 90
        1
176
     1
 90
        1
176
     1
 90
        2
176
     1
 40
0.6
176
     1
 40
30.0
176
     1
 62
     7
420
 16777215
176
     1
 90
        1
176
     1
 90
        4
176
     1
 62
     7
176
     1
 62
   257
176
     1
 90
        1
176
     1
 90
        1
176
     1
 40
1.0
176
     1
 90
        0
176
     1
 62
   257
176
     1
 40
1.0
176
     1
 90
        1
176
     1
 90
        6
176
     1
 90
        2
176
     1
 62
     7
176
     1
 90
        5
176
     1
 90
        0
176
     1
 90
        0
176
     1
290
     0
176
     1
 90
       13
176
     1
 40
0.0
176
     1
 90
        0
176
     1
290
     0
176
     1
290
     1
176
     1
290
     1
176
     1
290
     0
176
     1
290
     0
176
     1
290
     0
176
     1
290
     0
176
     1
290
     0
176
     1
290
     0
176
     1
 90
       50
176
     1
 40
0.0
176
     1
 40
1.0
176
     1
 90
        0
176
     1
 62
    18
420
        0
176
     1
 90
       50
176
     1
 90
        3
176
     1
 62
     5
420
      255
176
     1
290
     0
176
     1
 90
       50
176
     1
 90
       50
176
     1
 90
       50
176
     1
290
     0
176
     1
 90
       50
176
     1
 62
   256
176
     0
 40
1.0
176
     0
 90
        2
176
     1
  1
strokes_ogs.tif
176
     1
290
     0
176
     1
 40
1.0
176
     1
 40
1.0
176
     1
  0
VISUALSTYLE
  5
7A109
102
{ACAD_REACTORS
330
7A106
102
}
330
7A106
100
AcDbVisualStyle
  2

 70
     2
177
     3
291
     1
 70
    58
 90
        2
176
     1
 90
        2
176
     1
 90
        1
176
     1
 90
        2
176
     1
 40
0.6
176
     1
 40
30.0
176
     1
 62
     7
420
 16777215
176
     1
 90
        0
176
     1
 90
        4
176
     1
 62
     7
176
     1
 62
   257
176
     1
 90
        1
176
     1
 90
        1
176
     1
 40
1.0
176
     1
 90
        0
176
     1
 62
     7
176
     1
 40
1.0
176
     1
 90
        1
176
     1
 90
        6
176
     1
 90
        2
176
     1
 62
     7
176
     1
 90
        5
176
     1
 90
        0
176
     1
 90
        0
176
     1
290
     0
176
     1
 90
       13
176
     1
 40
0.0
176
     1
 90
        0
176
     1
290
     0
176
     1
290
     1
176
     1
290
     1
176
     1
290
     0
176
     1
290
     0
176
     1
290
     0
176
     1
290
     0
176
     1
290
     0
176
     1
290
     0
176
     1
 90
       50
176
     1
 40
0.0
176
     1
 40
1.0
176
     1
 90
        0
176
     1
 62
    18
420
        0
176
     1
 90
       50
176
     1
 90
        3
176
     1
 62
     5
420
      255
176
     1
290
     0
176
     1
 90
       50
176
     1
 90
       50
176
     1
 90
       50
176
     1
290
     0
176
     1
 90
       50
176
     1
 62
   256
176
     0
 40
1.0
176
     0
 90
        2
176
     1
  1
strokes_ogs.tif
176
     1
290
     0
176
     1
 40
1.0
176
     1
 40
1.0
176
     1
  0
VISUALSTYLE
  5
7A10A
102
{ACAD_REACTORS
330
7A106
102
}
330
7A106
100
AcDbVisualStyle
  2

 70
     3
177
     3
291
     1
 70
    58
 90
        2
176
     1
 90
        2
176
     1
 90
        1
176
     1
 90
        2
176
     1
 40
0.6
176
     1
 40
30.0
176
     1
 62
     7
420
 16777215
176
     1
 90
        1
176
     1
 90
        4
176
     1
 62
     7
176
     1
 62
   257
176
     1
 90
        1
176
     1
 90
        1
176
     1
 40
1.0
176
     1
 90
        0
176
     1
 62
   257
176
     1
 40
1.0
176
     1
 90
        1
176
     1
 90
        6
176
     1
 90
        2
176
     1
 62
     7
176
     1
 90
        5
176
     1
 90
        0
176
     1
 90
        0
176
     1
290
     0
176
     1
 90
       13
176
     1
 40
0.0
176
     1
 90
        0
176
     1
290
     0
176
     1
290
     1
176
     1
290
     1
176
     1
290
     0
176
     1
290
     0
176
     1
290
     0
176
     1
290
     0
176
     1
290
     0
176
     1
290
     0
176
     1
 90
       50
176
     1
 40
0.0
176
     1
 40
1.0
176
     1
 90
        0
176
     1
 62
    18
420
        0
176
     1
 90
       50
176
     1
 90
        3
176
     1
 62
     5
420
      255
176
     1
290
     0
176
     1
 90
       50
176
     1
 90
       50
176
     1
 90
       50
176
     1
290
     0
176
     1
 90
       50
176
     1
 62
   256
176
     0
 40
1.0
176
     0
 90
        2
176
     1
  1
strokes_ogs.tif
176
     1
290
     0
176
     1
 40
1.0
176
     1
 40
1.0
176
     1
  0
VISUALSTYLE
  5
8A091
102
{ACAD_REACTORS
330
7A106
102
}
330
7A106
100
AcDbVisualStyle
  2
Hidden
 70
     6
177
     3
291
     0
 70
    58
 90
        1
176
     1
 90
        2
176
     1
 90
        2
176
     1
 90
        0
176
     1
 40
0.6
176
     1
 40
30.0
176
     1
 62
     7
420
 16777215
176
     1
 90
        2
176
     1
 90
        2
176
     1
 62
     7
176
     1
 62
   257
176
     1
 90
        2
176
     1
 90
        1
176
     1
 40
40.0
176
     1
 90
        0
176
     1
 62
   257
176
     1
 40
1.0
176
     1
 90
        1
176
     1
 90
        6
176
     1
 90
        2
176
     1
 62
     7
176
     1
 90
        3
176
     1
 90
        0
176
     1
 90
        0
176
     1
290
     0
176
     1
 90
        1
176
     1
 40
0.0
176
     1
 90
        0
176
     1
290
     0
176
     1
290
     1
176
     1
290
     1
176
     1
290
     0
176
     1
290
     0
176
     1
290
     0
176
     1
290
     0
176
     1
290
     0
176
     1
290
     0
176
     1
 90
       50
176
     1
 40
0.0
176
     1
 40
1.0
176
     1
 90
        0
176
     1
 62
    18
420
        0
176
     1
 90
       50
176
     1
 90
        3
176
     1
 62
     5
420
      255
176
     1
290
     0
176
     1
 90
       50
176
     1
 90
       50
176
     1
 90
       50
176
     1
290
     0
176
     1
 90
       50
176
     1
 62
   256
176
     0
 40
1.0
176
     0
 90
        2
176
     1
  1
strokes_ogs.tif
176
     1
290
     0
176
     1
 40
1.0
176
     1
 40
1.0
176
     1
  0
VISUALSTYLE
  5
8A097
102
{ACAD_REACTORS
330
7A106
102
}
330
7A106
100
AcDbVisualStyle
  2
JitterOff
 70
    20
177
     3
291
     1
 70
    58
 90
        2
176
     0
 90
        2
176
     0
 90
        0
176
     0
 90
        0
176
     0
 40
0.6
176
     0
 40
30.0
176
     0
 62
     7
420
 16777215
176
     0
 90
        1
176
     0
 90
        4
176
     0
 62
     7
176
     0
 62
   257
176
     0
 90
        1
176
     0
 90
        1
176
     0
 40
1.0
176
     0
 90
       10
176
     2
 62
     7
176
     0
 40
1.0
176
     0
 90
        1
176
     0
 90
        6
176
     0
 90
        2
176
     0
 62
     7
176
     0
 90
        5
176
     0
 90
        0
176
     0
 90
        0
176
     0
290
     0
176
     0
 90
        1
176
     0
 40
0.0
176
     0
 90
        0
176
     0
290
     0
176
     1
290
     1
176
     1
290
     1
176
     1
290
     0
176
     1
290
     0
176
     1
290
     0
176
     1
290
     0
176
     1
290
     0
176
     1
290
     0
176
     1
 90
       50
176
     0
 40
0.0
176
     0
 40
1.0
176
     0
 90
        0
176
     0
 62
    18
420
        0
176
     0
 90
       50
176
     0
 90
        3
176
     0
 62
     5
420
      255
176
     0
290
     0
176
     1
 90
       50
176
     0
 90
       50
176
     0
 90
       50
176
     0
290
     0
176
     1
 90
       50
176
     0
 62
   256
176
     0
 40
1.0
176
     0
 90
        2
176
     0
  1
strokes_ogs.tif
176
     0
290
     0
176
     1
 40
1.0
176
     0
 40
1.0
176
     0
  0
VISUALSTYLE
  5
7A114
102
{ACAD_REACTORS
330
7A106
102
}
330
7A106
100
AcDbVisualStyle
  2

 70
    14
177
     3
291
     1
 70
    58
 90
        2
176
     1
 90
        2
176
     1
 90
        0
176
     1
 90
        0
176
     1
 40
0.6
176
     1
 40
30.0
176
     1
 62
     7
420
 16777215
176
     1
 90
        1
176
     1
 90
        4
176
     1
 62
     7
176
     1
 62
   257
176
     1
 90
        7
176
     1
 90
        7
176
     1
 40
1.0
176
     1
 90
        8
176
     1
 62
     7
176
     1
 40
1.0
176
     1
 90
        1
176
     1
 90
        6
176
     1
 90
        2
176
     1
 62
     7
176
     1
 90
        5
176
     1
 90
        0
176
     1
 90
        0
176
     1
290
     0
176
     1
 90
        1
176
     1
 40
0.0
176
     1
 90
        0
176
     1
290
     0
176
     1
290
     1
176
     1
290
     1
176
     1
290
     0
176
     1
290
     0
176
     1
290
     0
176
     1
290
     0
176
     1
290
     0
176
     1
290
     0
176
     1
 90
       50
176
     1
 40
0.0
176
     1
 40
1.0
176
     1
 90
        0
176
     1
 62
    18
420
        0
176
     1
 90
       50
176
     1
 90
        3
176
     1
 62
     5
420
      255
176
     1
290
     0
176
     1
 90
       50
176
     1
 90
       50
176
     1
 90
       50
176
     1
290
     0
176
     1
 90
       50
176
     1
 62
   256
176
     0
 40
1.0
176
     0
 90
        2
176
     1
  1
strokes_ogs.tif
176
     1
290
     0
176
     1
 40
1.0
176
     1
 40
1.0
176
     1
  0
VISUALSTYLE
  5
8A098
102
{ACAD_REACTORS
330
7A106
102
}
330
7A106
100
AcDbVisualStyle
  2
OverhangOff
 70
    21
177
     3
291
     1
 70
    58
 90
        2
176
     0
 90
        2
176
     0
 90
        0
176
     0
 90
        0
176
     0
 40
0.6
176
     0
 40
30.0
176
     0
 62
     7
420
 16777215
176
     0
 90
        1
176
     0
 90
        4
176
     0
 62
     7
176
     0
 62
   257
176
     0
 90
        1
176
     0
 90
        1
176
     0
 40
1.0
176
     0
 90
        9
176
     2
 62
     7
176
     0
 40
1.0
176
     0
 90
        1
176
     0
 90
        6
176
     0
 90
        2
176
     0
 62
     7
176
     0
 90
        5
176
     0
 90
        0
176
     0
 90
        0
176
     0
290
     0
176
     0
 90
        1
176
     0
 40
0.0
176
     0
 90
        0
176
     0
290
     0
176
     1
290
     1
176
     1
290
     1
176
     1
290
     0
176
     1
290
     0
176
     1
290
     0
176
     1
290
     0
176
     1
290
     0
176
     1
290
     0
176
     1
 90
       50
176
     0
 40
0.0
176
     0
 40
1.0
176
     0
 90
        0
176
     0
 62
    18
420
        0
176
     0
 90
       50
176
     0
 90
        3
176
     0
 62
     5
420
      255
176
     0
290
     0
176
     1
 90
       50
176
     0
 90
       50
176
     0
 90
       50
176
     0
290
     0
176
     1
 90
       50
176
     0
 62
   256
176
     0
 40
1.0
176
     0
 90
        2
176
     0
  1
strokes_ogs.tif
176
     0
290
     0
176
     1
 40
1.0
176
     0
 40
1.0
176
     0
  0
VISUALSTYLE
  5
7A110
102
{ACAD_REACTORS
330
7A106
102
}
330
7A106
100
AcDbVisualStyle
  2

 70
     8
177
     3
291
     0
 70
    58
 90
        2
176
     1
 90
        2
176
     1
 90
        0
176
     1
 90
        0
176
     1
 40
0.6
176
     1
 40
30.0
176
     1
 62
     7
420
 16777215
176
     1
 90
        1
176
     1
 90
        0
176
     1
 62
     7
176
     1
 62
   257
176
     1
 90
        1
176
     1
 90
        1
176
     1
 40
1.0
176
     1
 90
        8
176
     1
 62
     8
420
  7895160
176
     1
 40
1.0
176
     1
 90
        1
176
     1
 90
        6
176
     1
 90
        2
176
     1
 62
     7
176
     1
 90
        5
176
     1
 90
        0
176
     1
 90
        0
176
     1
290
     0
176
     1
 90
       13
176
     1
 40
0.0
176
     1
 90
        0
176
     1
290
     0
176
     1
290
     1
176
     1
290
     1
176
     1
290
     0
176
     1
290
     0
176
     1
290
     0
176
     1
290
     0
176
     1
290
     0
176
     1
290
     0
176
     1
 90
       50
176
     1
 40
0.0
176
     1
 40
1.0
176
     1
 90
        0
176
     1
 62
    18
420
        0
176
     1
 90
       50
176
     1
 90
        3
176
     1
 62
     5
420
      255
176
     1
290
     0
176
     1
 90
       50
176
     1
 90
       50
176
     1
 90
       50
176
     1
290
     0
176
     1
 90
       50
176
     1
 62
   256
176
     0
 40
1.0
176
     0
 90
        2
176
     1
  1
strokes_ogs.tif
176
     1
290
     0
176
     1
 40
1.0
176
     1
 40
1.0
176
     1
  0
VISUALSTYLE
  5
8A096
102
{ACAD_REACTORS
330
7A106
102
}
330
7A106
100
AcDbVisualStyle
  2
Shaded
 70
    27
177
     3
291
     0
 70
    58
 90
        2
176
     1
 90
        2
176
     1
 90
        1
176
     1
 90
        2
176
     1
 40
0.6
176
     1
 40
30.0
176
     1
 62
     7
420
 16777215
176
     1
 90
        0
176
     1
 90
        4
176
     1
 62
     7
176
     1
 62
   257
176
     1
 90
        1
176
     1
 90
        1
176
     1
 40
1.0
176
     1
 90
        8
176
     1
 62
   257
176
     1
 40
1.0
176
     1
 90
        1
176
     1
 90
        6
176
     1
 90
        2
176
     1
 62
     8
420
  7895160
176
     1
 90
        3
176
     1
 90
        0
176
     1
 90
        0
176
     1
290
     0
176
     1
 90
        5
176
     1
 40
0.0
176
     1
 90
        0
176
     1
290
     0
176
     1
290
     1
176
     1
290
     1
176
     1
290
     0
176
     1
290
     0
176
     1
290
     0
176
     1
290
     0
176
     1
290
     0
176
     1
290
     0
176
     1
 90
       50
176
     1
 40
0.0
176
     1
 40
1.0
176
     1
 90
        0
176
     1
 62
    18
420
        0
176
     1
 90
       50
176
     1
 90
        3
176
     1
 62
     5
420
      255
176
     1
290
     0
176
     1
 90
       50
176
     1
 90
       50
176
     1
 90
       50
176
     1
290
     0
176
     1
 90
       50
176
     1
 62
   256
176
     0
 40
1.0
176
     0
 90
        2
176
     1
  1
strokes_ogs.tif
176
     1
290
     0
176
     1
 40
1.0
176
     1
 40
1.0
176
     1
  0
VISUALSTYLE
  5
8A095
102
{ACAD_REACTORS
330
7A106
102
}
330
7A106
100
AcDbVisualStyle
  2
Shaded with edges
 70
    26
177
     3
291
     0
 70
    58
 90
        2
176
     1
 90
        2
176
     1
 90
        1
176
     1
 90
        2
176
     1
 40
0.6
176
     1
 40
30.0
176
     1
 62
     7
420
 16777215
176
     1
 90
        1
176
     1
 90
        2
176
     1
 62
     7
176
     1
 62
   257
176
     1
 90
        2
176
     1
 90
        1
176
     1
 40
1.0
176
     1
 90
        8
176
     1
 62
   257
176
     1
 40
1.0
176
     1
 90
        1
176
     1
 90
        6
176
     1
 90
        2
176
     1
 62
     7
176
     1
 90
        3
176
     1
 90
        0
176
     1
 90
        0
176
     1
290
     0
176
     1
 90
        5
176
     1
 40
0.0
176
     1
 90
        0
176
     1
290
     0
176
     1
290
     1
176
     1
290
     1
176
     1
290
     0
176
     1
290
     0
176
     1
290
     0
176
     1
290
     0
176
     1
290
     0
176
     1
290
     0
176
     1
 90
       50
176
     1
 40
0.0
176
     1
 40
1.0
176
     1
 90
        0
176
     1
 62
    18
420
        0
176
     1
 90
       50
176
     1
 90
        3
176
     1
 62
     5
420
      255
176
     1
290
     0
176
     1
 90
       50
176
     1
 90
       50
176
     1
 90
       50
176
     1
290
     0
176
     1
 90
       50
176
     1
 62
   256
176
     0
 40
1.0
176
     0
 90
        2
176
     1
  1
strokes_ogs.tif
176
     1
290
     0
176
     1
 40
1.0
176
     1
 40
1.0
176
     1
  0
VISUALSTYLE
  5
8A092
102
{ACAD_REACTORS
330
7A106
102
}
330
7A106
100
AcDbVisualStyle
  2
Shades of Gray
 70
    23
177
     3
291
     0
 70
    58
 90
        2
176
     1
 90
        2
176
     1
 90
        3
176
     1
 90
        0
176
     1
 40
0.6
176
     1
 40
30.0
176
     1
 62
     7
420
 16777215
176
     1
 90
        2
176
     1
 90
        2
176
     1
 62
     7
176
     1
 62
     7
176
     1
 90
        1
176
     1
 90
        1
176
     1
 40
40.0
176
     1
 90
        8
176
     1
 62
     7
176
     1
 40
1.0
176
     1
 90
        1
176
     1
 90
        6
176
     1
 90
        2
176
     1
 62
     7
176
     1
 90
        3
176
     1
 90
        0
176
     1
 90
        0
176
     1
290
     0
176
     1
 90
        1
176
     1
 40
0.0
176
     1
 90
        0
176
     1
290
     0
176
     1
290
     1
176
     1
290
     1
176
     1
290
     0
176
     1
290
     0
176
     1
290
     0
176
     1
290
     0
176
     1
290
     0
176
     1
290
     0
176
     1
 90
       50
176
     1
 40
0.0
176
     1
 40
1.0
176
     1
 90
        0
176
     1
 62
    18
420
        0
176
     1
 90
       50
176
     1
 90
        3
176
     1
 62
     5
420
      255
176
     1
290
     0
176
     1
 90
       50
176
     1
 90
       50
176
     1
 90
       50
176
     1
290
     0
176
     1
 90
       50
176
     1
 62
   256
176
     0
 40
1.0
176
     0
 90
        2
176
     1
  1
strokes_ogs.tif
176
     1
290
     0
176
     1
 40
1.0
176
     1
 40
1.0
176
     1
  0
VISUALSTYLE
  5
8A093
102
{ACAD_REACTORS
330
7A106
102
}
330
7A106
100
AcDbVisualStyle
  2
Sketchy
 70
    24
177
     3
291
     0
 70
    58
 90
        1
176
     1
 90
        2
176
     1
 90
        2
176
     1
 90
        0
176
     1
 40
0.6
176
     1
 40
30.0
176
     1
 62
     7
420
 16777215
176
     1
 90
        2
176
     1
 90
        2
176
     1
 62
     7
176
     1
 62
     7
176
     1
 90
        1
176
     1
 90
        1
176
     1
 40
40.0
176
     1
 90
       11
176
     1
 62
     7
176
     1
 40
1.0
176
     1
 90
        1
176
     1
 90
        6
176
     1
 90
        2
176
     1
 62
     7
176
     1
 90
        6
176
     1
 90
        0
176
     1
 90
        0
176
     1
290
     0
176
     1
 90
        1
176
     1
 40
0.0
176
     1
 90
        0
176
     1
290
     0
176
     1
290
     1
176
     1
290
     1
176
     1
290
     0
176
     1
290
     0
176
     1
290
     0
176
     1
290
     0
176
     1
290
     0
176
     1
290
     0
176
     1
 90
       50
176
     1
 40
0.0
176
     1
 40
1.0
176
     1
 90
        0
176
     1
 62
    18
420
        0
176
     1
 90
       50
176
     1
 90
        3
176
     1
 62
     5
420
      255
176
     1
290
     0
176
     1
 90
       50
176
     1
 90
       50
176
     1
 90
       50
176
     1
290
     0
176
     1
 90
       50
176
     1
 62
   256
176
     0
 40
1.0
176
     0
 90
        2
176
     1
  1
strokes_ogs.tif
176
     1
290
     0
176
     1
 40
1.0
176
     1
 40
1.0
176
     1
  0
VISUALSTYLE
  5
7A113
102
{ACAD_REACTORS
330
7A106
102
}
330
7A106
100
AcDbVisualStyle
  2

 70
    13
177
     3
291
     1
 70
    58
 90
        2
176
     1
 90
        2
176
     1
 90
        0
176
     1
 90
        0
176
     1
 40
0.6
176
     1
 40
30.0
176
     1
 62
     7
420
 16777215
176
     1
 90
        1
176
     1
 90
        4
176
     1
 62
     7
176
     1
 62
   257
176
     1
 90
        1
176
     1
 90
        1
176
     1
 40
1.0
176
     1
 90
       12
176
     1
 62
     7
176
     1
 40
1.0
176
     1
 90
        1
176
     1
 90
        6
176
     1
 90
        2
176
     1
 62
     7
176
     1
 90
        5
176
     1
 90
        0
176
     1
 90
        0
176
     1
290
     0
176
     1
 90
        1
176
     1
 40
0.0
176
     1
 90
        0
176
     1
290
     0
176
     1
290
     1
176
     1
290
     1
176
     1
290
     0
176
     1
290
     0
176
     1
290
     0
176
     1
290
     0
176
     1
290
     0
176
     1
290
     0
176
     1
 90
       50
176
     1
 40
0.0
176
     1
 40
1.0
176
     1
 90
        0
176
     1
 62
    18
420
        0
176
     1
 90
       50
176
     1
 90
        3
176
     1
 62
     5
420
      255
176
     1
290
     0
176
     1
 90
       50
176
     1
 90
       50
176
     1
 90
       50
176
     1
290
     0
176
     1
 90
       50
176
     1
 62
   256
176
     0
 40
1.0
176
     0
 90
        2
176
     1
  1
strokes_ogs.tif
176
     1
290
     0
176
     1
 40
1.0
176
     1
 40
1.0
176
     1
  0
VISUALSTYLE
  5
8A090
102
{ACAD_REACTORS
330
7A106
102
}
330
7A106
100
AcDbVisualStyle
  2
Wireframe
 70
     5
177
     3
291
     0
 70
    58
 90
        0
176
     1
 90
        2
176
     1
 90
        0
176
     1
 90
        0
176
     1
 40
0.6
176
     1
 40
30.0
176
     1
 62
     7
420
 16777215
176
     1
 90
        1
176
     1
 90
        4
176
     1
 62
     7
176
     1
 62
   257
176
     1
 90
        1
176
     1
 90
        1
176
     1
 40
1.0
176
     1
 90
        0
176
     1
 62
   257
176
     1
 40
1.0
176
     1
 90
        1
176
     1
 90
        6
176
     1
 90
        2
176
     1
 62
     7
176
     1
 90
        3
176
     1
 90
        0
176
     1
 90
        0
176
     1
290
     0
176
     1
 90
        1
176
     1
 40
0.0
176
     1
 90
        0
176
     1
290
     0
176
     1
290
     1
176
     1
290
     1
176
     1
290
     0
176
     1
290
     0
176
     1
290
     0
176
     1
290
     0
176
     1
290
     0
176
     1
290
     0
176
     1
 90
       50
176
     1
 40
0.0
176
     1
 40
1.0
176
     1
 90
        0
176
     1
 62
    18
420
        0
176
     1
 90
       50
176
     1
 90
        3
176
     1
 62
     5
420
      255
176
     1
290
     0
176
     1
 90
       50
176
     1
 90
       50
176
     1
 90
       50
176
     1
290
     0
176
     1
 90
       50
176
     1
 62
   256
176
     0
 40
1.0
176
     0
 90
        2
176
     1
  1
strokes_ogs.tif
176
     1
290
     0
176
     1
 40
1.0
176
     1
 40
1.0
176
     1
  0
VISUALSTYLE
  5
8A094
102
{ACAD_REACTORS
330
7A106
102
}
330
7A106
100
AcDbVisualStyle
  2
X-Ray
 70
    25
177
     3
291
     0
 70
    58
 90
        2
176
     1
 90
        2
176
     1
 90
        1
176
     1
 90
        1
176
     1
 40
0.5
176
     1
 40
30.0
176
     1
 62
     7
420
 16777215
176
     1
 90
        1
176
     1
 90
        0
176
     1
 62
     7
176
     1
 62
   257
176
     1
 90
        1
176
     1
 90
        1
176
     1
 40
1.0
176
     1
 90
        8
176
     1
 62
     7
176
     1
 40
1.0
176
     1
 90
        1
176
     1
 90
        6
176
     1
 90
        2
176
     1
 62
     7
176
     1
 90
        3
176
     1
 90
        0
176
     1
 90
        0
176
     1
290
     0
176
     1
 90
       13
176
     1
 40
0.0
176
     1
 90
        0
176
     1
290
     0
176
     1
290
     1
176
     1
290
     1
176
     1
290
     0
176
     1
290
     0
176
     1
290
     0
176
     1
290
     0
176
     1
290
     0
176
     1
290
     0
176
     1
 90
       50
176
     1
 40
0.0
176
     1
 40
1.0
176
     1
 90
        0
176
     1
 62
    18
420
        0
176
     1
 90
       50
176
     1
 90
        3
176
     1
 62
     5
420
      255
176
     1
290
     0
176
     1
 90
       50
176
     1
 90
       50
176
     1
 90
       50
176
     1
290
     0
176
     1
 90
       50
176
     1
 62
   256
176
     0
 40
1.0
176
     0
 90
        2
176
     1
  1
strokes_ogs.tif
176
     1
290
     0
176
     1
 40
1.0
176
     1
 40
1.0
176
     1
  0
DICTIONARYVAR
  5
8A160
102
{ACAD_REACTORS
330
7506D
102
}
330
7506D
100
DictionaryVariables
280
     0
  1
1:1
  0
DICTIONARYVAR
  5
8A15C
102
{ACAD_REACTORS
330
7506D
102
}
330
7506D
100
DictionaryVariables
280
     0
  1
Standard
  0
DICTIONARYVAR
  5
7A137
102
{ACAD_REACTORS
330
7506D
102
}
330
7506D
100
DictionaryVariables
280
     0
  1
Standard
  0
DICTIONARYVAR
  5
8A15D
102
{ACAD_REACTORS
330
7506D
102
}
330
7506D
100
DictionaryVariables
280
     0
  1
Imperial24
  0
DICTIONARYVAR
  5
8A15E
102
{ACAD_REACTORS
330
7506D
102
}
330
7506D
100
DictionaryVariables
280
     0
  1
Imperial24
  0
DICTIONARYVAR
  5
7506E
102
{ACAD_REACTORS
330
7506D
102
}
330
7506D
100
DictionaryVariables
280
     0
  1
1
  0
DICTIONARYVAR
  5
8A162
102
{ACAD_REACTORS
330
7506D
102
}
330
7506D
100
DictionaryVariables
280
     0
  1
1
  0
DICTIONARYVAR
  5
8A163
102
{ACAD_REACTORS
330
7506D
102
}
330
7506D
100
DictionaryVariables
280
     0
  1
15
  0
DICTIONARYVAR
  5
8A161
102
{ACAD_REACTORS
330
7506D
102
}
330
7506D
100
DictionaryVariables
280
     0
  1
0
  0
DICTIONARYVAR
  5
8A15F
102
{ACAD_REACTORS
330
7506D
102
}
330
7506D
100
DictionaryVariables
280
     0
  1
0
  0
DICTIONARYVAR
  5
8AA9E
102
{ACAD_REACTORS
330
7506D
102
}
330
7506D
100
DictionaryVariables
280
     0
  1
0
  0
XRECORD
  5
8AA53
102
{ACAD_REACTORS
330
755EF
102
}
330
755EF
100
AcDbXrecord
280
     1
1000
ADE02C001
1070
     1
1070
     0
1002
{
1002
}
1002
{
1002
}
1002
{
1002
}
1000

  0
XRECORD
  5
8A08C
102
{ACAD_REACTORS
330
8A08B
102
}
330
8A08B
100
AcDbXrecord
280
     1
330
0
330
0
330
0
330
0
330
0
330
0
330
0
330
0
330
0
330
0
330
0
330
0
330
0
330
0
330
0
330
0
330
0
330
0
330
0
330
0
330
0
330
0
330
0
330
0
330
0
330
0
330
0
330
0
330
0
330
0
330
0
330
0
330
0
330
0
330
0
330
0
330
0
330
0
330
0
330
0
330
0
330
0
330
0
330
0
330
0
330
0
330
0
330
0
330
0
330
0
330
0
330
0
330
0
330
0
330
0
330
0
330
0
330
0
330
0
330
0
330
0
330
0
330
0
330
0
330
0
330
0
330
0
330
0
330
0
330
0
330
0
330
0
330
0
330
0
330
0
330
0
330
0
330
0
330
0
330
0
330
0
330
0
330
0
330
0
330
0
330
0
330
0
330
0
330
0
330
0
330
0
330
0
330
0
330
0
330
0
330
0
330
0
330
0
330
0
330
0
330
0
330
0
330
0
330
0
330
0
330
0
330
0
330
0
330
0
330
0
330
0
330
0
330
0
330
0
330
0
330
0
330
0
330
0
330
0
330
0
330
0
330
0
330
0
330
0
330
0
330
0
330
0
330
0
330
0
330
0
330
0
330
0
330
0
330
0
330
0
330
0
330
0
330
0
330
0
330
0
330
0
330
0
330
0
330
0
330
0
330
0
330
0
330
0
330
0
330
0
330
0
330
0
330
0
330
0
330
0
330
0
330
0
330
0
330
0
330
0
330
0
330
0
330
0
330
0
330
0
330
0
330
0
330
0
330
0
330
0
330
0
330
0
330
0
330
0
330
0
330
0
330
0
330
0
330
0
330
0
330
0
330
0
330
0
330
0
330
0
330
0
330
0
330
0
330
0
330
0
330
0
330
0
330
0
330
0
330
0
330
0
330
0
330
0
330
0
330
0
330
0
330
0
330
0
330
0
330
0
330
0
330
0
330
0
330
0
330
0
330
0
330
0
330
0
330
0
330
0
330
0
330
0
330
0
330
0
330
0
330
0
330
0
330
0
330
0
330
0
330
0
330
0
330
0
330
0
330
0
330
0
330
0
330
0
330
0
330
0
330
0
330
0
330
0
330
0
330
0
330
0
330
0
330
0
330
0
330
0
330
0
330
0
330
0
330
0
330
0
330
0
330
0
330
0
330
0
330
0
330
0
330
0
330
0
330
0
330
0
330
0
330
0
330
0
330
0
330
0
330
0
330
0
330
0
330
0
330
0
330
0
330
0
330
0
330
0
330
0
330
0
330
0
330
0
330
0
330
0
330
0
330
0
330
0
330
0
330
0
330
0
330
0
330
0
330
0
330
0
330
0
330
0
330
0
330
0
330
0
330
0
330
0
330
0
330
0
330
0
330
0
330
0
330
0
330
0
330
0
330
0
330
0
330
0
330
0
330
0
330
0
330
0
330
0
330
0
330
0
330
0
330
0
330
0
330
0
330
0
330
0
330
0
330
0
330
0
330
0
330
0
330
0
330
0
330
0
330
0
330
0
330
0
330
0
330
0
330
0
330
0
330
0
330
0
330
0
330
0
330
0
330
0
330
0
330
0
330
0
330
0
330
0
330
0
330
0
330
0
330
0
330
0
330
0
330
0
330
0
330
0
330
0
330
0
330
0
330
0
330
0
330
0
330
0
330
0
330
0
330
0
330
0
330
0
330
0
330
0
330
0
330
0
330
0
330
0
330
0
330
0
330
0
  0
ACAD_PROXY_OBJECT
  5
7A12E
102
{ACAD_REACTORS
330
7A11F
102
}
330
7A11F
100
AcDbProxyObject
 90
      499
 91
      532
 71
    29
 97
      226
 70
     1
100
AcMapDMStylizedEntitiesTable
 70
     1
  0
DATATABLE
  5
7A123
102
{ACAD_REACTORS
330
7A11F
102
}
330
7A11F
100
AcDbDataTable
 70
     2
 90
        4
 91
       15
  1

 92
        3
  2
OriginalClassName
  3
AcMapDMDefaultStyle
  3
AcMapDMEntityStyle
  3
AcMapDMRasterStyle
  3
AcMapDMSEAnnotationStyle
  3
AcMapDMSEHatchStyle
  3
AcMapDMSETextStyle
  3
AcMapDMThematicStyle
  3
AcMapDMBaseElement
  3
AcMapDMAttachedDwgsQueryElement
  3
AcMapDMFeatureElement
  3
AcMapDMLayerElement
  3
AcMapDMCurrentDwgQueryElement
  3
AcMapDMRasterElement
  3
AcMapDMTopoElement
  3
AcMapDMTopoQueryElement
 92
        3
  2
ProxyDisplayName
  3
Default
  3
Entity
  3
Raster
  3
Annotation
  3
Hatch
  3
Text
  3
Thematic
  3
Map Base
  3
Ade Query
  3
Feature Class
  3
Layer
  3
Ade Project Query
  3
Raster
  3
Topology
  3
Topology Query
 92
        1
  2
CustomObjectType
 93
        2
 93
        2
 93
        2
 93
        2
 93
        2
 93
        2
 93
        2
 93
        1
 93
        1
 93
        1
 93
        1
 93
        1
 93
        1
 93
        1
 93
        1
 92
        1
  2
StyleCoExistanceType
 93
        1
 93
        1
 93
        1
 93
        1
 93
        1
 93
        1
 93
        2
 93
        0
 93
        0
 93
        0
 93
        0
 93
        0
 93
        0
 93
        0
 93
        0
  0
ACAD_PROXY_OBJECT
  5
7A120
102
{ACAD_REACTORS
330
7A11F
102
}
330
7A11F
100
AcDbProxyObject
 90
      499
 91
      521
 71
    29
 97
      226
 70
     1
100
AcDbDictionary
281
     1
  3
DisplayMap1
350
7A126
100
AcDbDictionaryWithDefault
340
7A126
100
AcMapDMMapManager
 70
     1
340
7A126
  0
ACAD_PROXY_OBJECT
  5
7A121
102
{ACAD_REACTORS
330
7A11F
102
}
330
7A11F
100
AcDbProxyObject
 90
      499
 91
      522
 71
    29
 97
      226
 70
     1
100
AcMapDMStyleLibrary
 70
     1
 70
     1
360
7A122
  0
DICTIONARY
  5
8A0B9
102
{ACAD_REACTORS
330
7A11F
102
}
330
7A11F
100
AcDbDictionary
281
     1
  0
XRECORD
  5
8A8B9
102
{ACAD_REACTORS
330
8A8B7
102
}
330
8A8B7
100
AcDbXrecord
280
     1
  1
AcLyLayerGroup
 90
        1
300
map
330
0
330
0
330
0
330
0
330
0
330
0
330
0
330
0
330
0
330
0
330
0
330
0
330
4BD1
330
0
330
0
330
0
330
0
330
0
330
0
330
0
330
0
330
0
330
0
330
0
330
0
330
0
330
0
330
0
330
0
330
0
330
0
330
0
330
0
330
0
330
0
  0
XRECORD
  5
8A8BA
102
{ACAD_REACTORS
330
8A8B7
102
}
330
8A8B7
100
AcDbXrecord
280
     1
  1
AcLyLayerGroup
 90
        1
300
apl
330
0
330
0
330
0
330
0
330
0
330
0
330
0
330
0
330
0
330
0
330
0
330
7A217
330
7A220
330
0
330
0
330
0
330
7A2DD
330
0
330
0
330
7A353
330
0
330
0
330
0
330
0
330
0
330
0
330
0
330
89F00
330
0
330
0
330
0
330
0
330
0
330
0
330
0
330
8A3E5
330
0
330
0
330
7A38B
330
0
330
8A8B6
  0
DICTIONARY
  5
8AA9C
330
8A0B1
100
AcDbDictionary
280
     1
281
     1
  0
DICTIONARY
  5
8AA9A
330
8A0AF
100
AcDbDictionary
280
     1
281
     1
  0
DICTIONARY
  5
8AA9F
330
7A127
100
AcDbDictionary
280
     1
281
     1
  3
ACAD_ROUNDTRIP_2008_TABLESTYLE_CELLSTYLEMAP
360
8AAA0
  0
DICTIONARY
  5
8AAA1
330
7A118
100
AcDbDictionary
280
     1
281
     1
  3
ACAD_ROUNDTRIP_2008_TABLESTYLE_CELLSTYLEMAP
360
8AAA2
  0
ACAD_PROXY_OBJECT
  5
7A126
102
{ACAD_REACTORS
330
7A120
330
7A128
102
}
330
7A120
100
AcDbProxyObject
 90
      499
 91
      527
 71
    29
 97
      226
 70
     1
100
AcMapDMMap
 70
     1
  1
Default
 70
     1
330
0
100
AcMapDMMap
 70
     1
 90
        1
360
7A128
 90
        1
 40
1.797693134862314E+99
 70
     1
100
AcMapDMMap
 70
     5
 70
     0
 40
1.797693134862314E+99
290
     1
290
     1
 40
1.0
 40
3.0
  1
Legend
 90
        1
 40
1.797693134862314E+99
  1

 70
     0
 40
5.0
 70
     1
 90
        0
 90
        1
360
7A129
 40
111.7241969783933
290
     0
290
     1
 40
1.0
 90
       40
290
     0
290
     1
 40
45.0
 40
45.0
1001
MapManagementAppName
1070
     1
1070
     0
1040
0.0
1040
0.0
1040
1000.0
1040
1000.0
1000

  0
ACAD_PROXY_OBJECT
  5
7A122
102
{ACAD_REACTORS
330
7A121
102
}
330
7A121
100
AcDbProxyObject
 90
      499
 91
      523
 71
    29
 97
      226
 70
     1
100
AcMapDMStyleCategory
 70
     1
  1
Display Styles
 70
     0
  0
CELLSTYLEMAP
  5
8AAA0
102
{ACAD_REACTORS
330
8AA9F
102
}
330
8AA9F
100
AcDbCellStyleMap
 90
        3
300
CELLSTYLE
  1
TABLEFORMAT_BEGIN
 90
        5
170
     1
 91
        0
 92
    32768
 62
   257
 93
        1
300
CONTENTFORMAT
  1
CONTENTFORMAT_BEGIN
 90
        0
 91
        0
 92
      512
 93
        0
300

 40
0.0
140
1.0
 94
        5
 62
     0
340
17
144
0.5
309
CONTENTFORMAT_END
171
     1
301
MARGIN
  1
CELLMARGIN_BEGIN
 40
0.06
 40
0.06
 40
0.06
 40
0.06
 40
0.18
 40
0.18
309
CELLMARGIN_END
 94
        6
 95
        1
302
GRIDFORMAT
  1
GRIDFORMAT_BEGIN
 90
        0
 91
        1
 62
     0
 92
       -2
340
0
 93
        0
 40
0.045
309
GRIDFORMAT_END
 95
        2
302
GRIDFORMAT
  1
GRIDFORMAT_BEGIN
 90
        0
 91
        1
 62
     0
 92
       -2
340
0
 93
        1
 40
0.045
309
GRIDFORMAT_END
 95
        4
302
GRIDFORMAT
  1
GRIDFORMAT_BEGIN
 90
        0
 91
        1
 62
     0
 92
       -2
340
0
 93
        0
 40
0.045
309
GRIDFORMAT_END
 95
        8
302
GRIDFORMAT
  1
GRIDFORMAT_BEGIN
 90
        0
 91
        1
 62
     0
 92
       -2
340
0
 93
        0
 40
0.045
309
GRIDFORMAT_END
 95
       16
302
GRIDFORMAT
  1
GRIDFORMAT_BEGIN
 90
        0
 91
        1
 62
     0
 92
       -2
340
0
 93
        1
 40
0.045
309
GRIDFORMAT_END
 95
       32
302
GRIDFORMAT
  1
GRIDFORMAT_BEGIN
 90
        0
 91
        1
 62
     0
 92
       -2
340
0
 93
        0
 40
0.045
309
GRIDFORMAT_END
309
TABLEFORMAT_END
  1
CELLSTYLE_BEGIN
 90
        1
 91
        1
300
_TITLE
309
CELLSTYLE_END
300
CELLSTYLE
  1
TABLEFORMAT_BEGIN
 90
        5
170
     1
 91
        0
 92
        0
 62
   257
 93
        1
300
CONTENTFORMAT
  1
CONTENTFORMAT_BEGIN
 90
        0
 91
        0
 92
      512
 93
        0
300

 40
0.0
140
1.0
 94
        4
 62
     0
340
17
144
0.4
309
CONTENTFORMAT_END
171
     1
301
MARGIN
  1
CELLMARGIN_BEGIN
 40
0.06
 40
0.06
 40
0.06
 40
0.06
 40
0.18
 40
0.18
309
CELLMARGIN_END
 94
        6
 95
        1
302
GRIDFORMAT
  1
GRIDFORMAT_BEGIN
 90
        0
 91
        1
 62
     0
 92
       -2
340
0
 93
        0
 40
0.045
309
GRIDFORMAT_END
 95
        2
302
GRIDFORMAT
  1
GRIDFORMAT_BEGIN
 90
        0
 91
        1
 62
     0
 92
       -2
340
0
 93
        1
 40
0.045
309
GRIDFORMAT_END
 95
        4
302
GRIDFORMAT
  1
GRIDFORMAT_BEGIN
 90
        0
 91
        1
 62
     0
 92
       -2
340
0
 93
        0
 40
0.045
309
GRIDFORMAT_END
 95
        8
302
GRIDFORMAT
  1
GRIDFORMAT_BEGIN
 90
        0
 91
        1
 62
     0
 92
       -2
340
0
 93
        0
 40
0.045
309
GRIDFORMAT_END
 95
       16
302
GRIDFORMAT
  1
GRIDFORMAT_BEGIN
 90
        0
 91
        1
 62
     0
 92
       -2
340
0
 93
        1
 40
0.045
309
GRIDFORMAT_END
 95
       32
302
GRIDFORMAT
  1
GRIDFORMAT_BEGIN
 90
        0
 91
        1
 62
     0
 92
       -2
340
0
 93
        0
 40
0.045
309
GRIDFORMAT_END
309
TABLEFORMAT_END
  1
CELLSTYLE_BEGIN
 90
        2
 91
        1
300
_HEADER
309
CELLSTYLE_END
300
CELLSTYLE
  1
TABLEFORMAT_BEGIN
 90
        5
170
     1
 91
        0
 92
        0
 62
   257
 93
        1
300
CONTENTFORMAT
  1
CONTENTFORMAT_BEGIN
 90
        0
 91
        0
 92
      512
 93
        0
300

 40
0.0
140
1.0
 94
        4
 62
     0
340
17
144
0.4
309
CONTENTFORMAT_END
171
     1
301
MARGIN
  1
CELLMARGIN_BEGIN
 40
0.06
 40
0.06
 40
0.06
 40
0.06
 40
0.18
 40
0.18
309
CELLMARGIN_END
 94
        6
 95
        1
302
GRIDFORMAT
  1
GRIDFORMAT_BEGIN
 90
        0
 91
        1
 62
     0
 92
       -2
340
0
 93
        1
 40
0.045
309
GRIDFORMAT_END
 95
        2
302
GRIDFORMAT
  1
GRIDFORMAT_BEGIN
 90
        0
 91
        1
 62
     0
 92
       -2
340
0
 93
        1
 40
0.045
309
GRIDFORMAT_END
 95
        4
302
GRIDFORMAT
  1
GRIDFORMAT_BEGIN
 90
        0
 91
        1
 62
     0
 92
       -2
340
0
 93
        0
 40
0.045
309
GRIDFORMAT_END
 95
        8
302
GRIDFORMAT
  1
GRIDFORMAT_BEGIN
 90
        0
 91
        1
 62
     0
 92
       -2
340
0
 93
        0
 40
0.045
309
GRIDFORMAT_END
 95
       16
302
GRIDFORMAT
  1
GRIDFORMAT_BEGIN
 90
        0
 91
        1
 62
     0
 92
       -2
340
0
 93
        1
 40
0.045
309
GRIDFORMAT_END
 95
       32
302
GRIDFORMAT
  1
GRIDFORMAT_BEGIN
 90
        0
 91
        1
 62
     0
 92
       -2
340
0
 93
        0
 40
0.045
309
GRIDFORMAT_END
309
TABLEFORMAT_END
  1
CELLSTYLE_BEGIN
 90
        3
 91
        2
300
_DATA
309
CELLSTYLE_END
  0
CELLSTYLEMAP
  5
8AAA2
102
{ACAD_REACTORS
330
8AAA1
102
}
330
8AAA1
100
AcDbCellStyleMap
 90
        3
300
CELLSTYLE
  1
TABLEFORMAT_BEGIN
 90
        5
170
     1
 91
        0
 92
    32768
 62
   257
 93
        1
300
CONTENTFORMAT
  1
CONTENTFORMAT_BEGIN
 90
        0
 91
        0
 92
      512
 93
        0
300

 40
0.0
140
1.0
 94
        5
 62
     0
340
17
144
0.25
309
CONTENTFORMAT_END
171
     1
301
MARGIN
  1
CELLMARGIN_BEGIN
 40
0.06
 40
0.06
 40
0.06
 40
0.06
 40
0.18
 40
0.18
309
CELLMARGIN_END
 94
        6
 95
        1
302
GRIDFORMAT
  1
GRIDFORMAT_BEGIN
 90
        0
 91
        1
 62
     0
 92
       -2
340
0
 93
        0
 40
0.045
309
GRIDFORMAT_END
 95
        2
302
GRIDFORMAT
  1
GRIDFORMAT_BEGIN
 90
        0
 91
        1
 62
     0
 92
       -2
340
0
 93
        0
 40
0.045
309
GRIDFORMAT_END
 95
        4
302
GRIDFORMAT
  1
GRIDFORMAT_BEGIN
 90
        0
 91
        1
 62
     0
 92
       -2
340
0
 93
        0
 40
0.045
309
GRIDFORMAT_END
 95
        8
302
GRIDFORMAT
  1
GRIDFORMAT_BEGIN
 90
        0
 91
        1
 62
     0
 92
       -2
340
0
 93
        0
 40
0.045
309
GRIDFORMAT_END
 95
       16
302
GRIDFORMAT
  1
GRIDFORMAT_BEGIN
 90
        0
 91
        1
 62
     0
 92
       -2
340
0
 93
        0
 40
0.045
309
GRIDFORMAT_END
 95
       32
302
GRIDFORMAT
  1
GRIDFORMAT_BEGIN
 90
        0
 91
        1
 62
     0
 92
       -2
340
0
 93
        0
 40
0.045
309
GRIDFORMAT_END
309
TABLEFORMAT_END
  1
CELLSTYLE_BEGIN
 90
        1
 91
        1
300
_TITLE
309
CELLSTYLE_END
300
CELLSTYLE
  1
TABLEFORMAT_BEGIN
 90
        5
170
     1
 91
        0
 92
        0
 62
   257
 93
        1
300
CONTENTFORMAT
  1
CONTENTFORMAT_BEGIN
 90
        0
 91
        0
 92
      512
 93
        0
300

 40
0.0
140
1.0
 94
        5
 62
     0
340
17
144
0.18
309
CONTENTFORMAT_END
171
     1
301
MARGIN
  1
CELLMARGIN_BEGIN
 40
0.06
 40
0.06
 40
0.06
 40
0.06
 40
0.18
 40
0.18
309
CELLMARGIN_END
 94
        6
 95
        1
302
GRIDFORMAT
  1
GRIDFORMAT_BEGIN
 90
        0
 91
        1
 62
     0
 92
       -2
340
0
 93
        0
 40
0.045
309
GRIDFORMAT_END
 95
        2
302
GRIDFORMAT
  1
GRIDFORMAT_BEGIN
 90
        0
 91
        1
 62
     0
 92
       -2
340
0
 93
        0
 40
0.045
309
GRIDFORMAT_END
 95
        4
302
GRIDFORMAT
  1
GRIDFORMAT_BEGIN
 90
        0
 91
        1
 62
     0
 92
       -2
340
0
 93
        0
 40
0.045
309
GRIDFORMAT_END
 95
        8
302
GRIDFORMAT
  1
GRIDFORMAT_BEGIN
 90
        0
 91
        1
 62
     0
 92
       -2
340
0
 93
        0
 40
0.045
309
GRIDFORMAT_END
 95
       16
302
GRIDFORMAT
  1
GRIDFORMAT_BEGIN
 90
        0
 91
        1
 62
     0
 92
       -2
340
0
 93
        0
 40
0.045
309
GRIDFORMAT_END
 95
       32
302
GRIDFORMAT
  1
GRIDFORMAT_BEGIN
 90
        0
 91
        1
 62
     0
 92
       -2
340
0
 93
        0
 40
0.045
309
GRIDFORMAT_END
309
TABLEFORMAT_END
  1
CELLSTYLE_BEGIN
 90
        2
 91
        1
300
_HEADER
309
CELLSTYLE_END
300
CELLSTYLE
  1
TABLEFORMAT_BEGIN
 90
        5
170
     1
 91
        0
 92
        0
 62
   257
 93
        1
300
CONTENTFORMAT
  1
CONTENTFORMAT_BEGIN
 90
        0
 91
        0
 92
      512
 93
        0
300

 40
0.0
140
1.0
 94
        2
 62
     0
340
17
144
0.18
309
CONTENTFORMAT_END
171
     1
301
MARGIN
  1
CELLMARGIN_BEGIN
 40
0.06
 40
0.06
 40
0.06
 40
0.06
 40
0.18
 40
0.18
309
CELLMARGIN_END
 94
        6
 95
        1
302
GRIDFORMAT
  1
GRIDFORMAT_BEGIN
 90
        0
 91
        1
 62
     0
 92
       -2
340
0
 93
        0
 40
0.045
309
GRIDFORMAT_END
 95
        2
302
GRIDFORMAT
  1
GRIDFORMAT_BEGIN
 90
        0
 91
        1
 62
     0
 92
       -2
340
0
 93
        0
 40
0.045
309
GRIDFORMAT_END
 95
        4
302
GRIDFORMAT
  1
GRIDFORMAT_BEGIN
 90
        0
 91
        1
 62
     0
 92
       -2
340
0
 93
        0
 40
0.045
309
GRIDFORMAT_END
 95
        8
302
GRIDFORMAT
  1
GRIDFORMAT_BEGIN
 90
        0
 91
        1
 62
     0
 92
       -2
340
0
 93
        0
 40
0.045
309
GRIDFORMAT_END
 95
       16
302
GRIDFORMAT
  1
GRIDFORMAT_BEGIN
 90
        0
 91
        1
 62
     0
 92
       -2
340
0
 93
        0
 40
0.045
309
GRIDFORMAT_END
 95
       32
302
GRIDFORMAT
  1
GRIDFORMAT_BEGIN
 90
        0
 91
        1
 62
     0
 92
       -2
340
0
 93
        0
 40
0.045
309
GRIDFORMAT_END
309
TABLEFORMAT_END
  1
CELLSTYLE_BEGIN
 90
        3
 91
        2
300
_DATA
309
CELLSTYLE_END
  0
ACAD_PROXY_OBJECT
  5
7A128
102
{ACAD_REACTORS
330
7A126
102
}
102
{ACAD_XDICTIONARY
360
7A12C
102
}
330
7A126
100
AcDbProxyObject
 90
      499
 91
      528
 71
    29
 97
      226
 70
     1
100
AcMapDMBaseElement
 70
     1
  1
Map Base
 70
     1
330
7A126
100
AcMapDMBaseElement
 70
     2
  1

 70
     2
  1

 70
     1
 40
1.797693134862314E+99
 70
     1
 70
     1
 70
     1
 70
     1
360
7A12B
100
AcMapDMBaseElement
 70
     1
  0
ACAD_PROXY_OBJECT
  5
7A129
102
{ACAD_REACTORS
330
7A126
102
}
330
7A126
100
AcDbProxyObject
 90
      499
 91
      529
 71
    29
 97
      226
 70
     1
100
AcMapDMDefaultStyle
 70
     1
 90
        1
  1
Default
100
AcMapDMDefaultStyle
 70
     1
280
   100
 90
        0
1001
AcMapDMDisplayStyleRegapp
1070
     2
1071
        1
1000
Default
1000

  0
DICTIONARY
  5
7A12C
330
7A128
100
AcDbDictionary
280
     1
281
     1
  3
AcMapDMSurrogateStyleSets
360
7A12D
  0
ACAD_PROXY_OBJECT
  5
7A12B
330
7A128
100
AcDbProxyObject
 90
      499
 91
      530
 71
    29
 97
      226
 70
     1
100
AcMapDMStyleReference
 70
     1
 70
     0
340
7A129
330
7A126
  0
ACAD_PROXY_OBJECT
  5
7A12D
102
{ACAD_REACTORS
330
7A12C
102
}
330
7A12C
100
AcDbProxyObject
 90
      499
 91
      531
 71
    29
 97
      226
 70
     1
100
AcMapDMSurrogateStyleSets
 70
     1
  1
Map Base
 70
     1
 40
1.797693134862314E+99
 70
     1
 70
     1
 70
     1
 70
     1
330
7A12B
 70
     0
  0
ENDSEC
  0
EOF
